» » »

Kiss And Tell Tabs (ver.2)

Artists:  A B C D E F G H I J K L M N O P Q R S T U V W X Y Z # 

Kiss And Tell Tabs (ver.2)

You Me At Six
Rating:
0/5 (0 votes)

Hard to play? Try these video lessons and learn fast.
                Kiss & Tell
You Me At Six

Other tabs wern't complete so I thought I would do one.
For the bridge I tabbed each guitar seperatly.
Enjoy..

Any questions just comment,
and don't forget to rate!

UPDATE (10/1/10) - Changed one bar for guitar 2, in 1st pre chorus. 
Also the bridge of guitar two wasn't being displayed correctly? Even tho it was right.


DROP D (Dadgbe)

###Intro###
[00:00 > 00:06]

 Guitar 1
|--------------------------------|
|--------------------------------|
|--------------------------------| X2
|--------------------------------|
|--------------------------------|
|7-7---10-10---3-3---3-3--3/5-5p0|

###Verse###
[00:06 > 00:30]

 Guitar 1
|--------------------------------|
|--------------------------------|
|--------------------------------| 
|--------------------------------| X8
|--------------------------------|
|7-7---10-10---3-3---3-3--3/5-5p0|

 Guitar 2 (play guitar 1 twice then..)
|--------------------------------|
|--------------------------------|
|--------------------------------|
|--7------10---------------------| X2
|--------------------------------|
|7-----10------3-3---3-3--3/5-5p0|

|--------------------------------|
|--------------------------------|
|9-9---12-12---5-5---5-5--5/7-7--|
|--------------------------------| X4
|--------------------------------|
|--------------------------------|

###Pre Chorus###
[00:30 > 00:33]

 Guitar 1
|-----------------------------|
|-----------------------------|
|5-5-------5-5----------------|
|3-3-------3-3---------x-x-x-x|
|3-3-------3-3---------x-x-x-x|
|3-3-------3-3---------x-x-x-x|
|
|Guitar 2
|-----------------------------|
|----8--8------8--8-----------|
|----5--5------5--5-----------|
|----------------------x-x-x-x|
|----------------------x-x-x-x|
|----------------------x-x-x-x|

###Chorus###
[00:33 > 00:45]

 Guitar 1
|-------------------------------------------------------------------------|
|-------------------------------------------------------------------------|
|-------------------------------------------------------------------------|
|3---3---3-3---10---10-10---10-10-10-10---5---5---5-5----5---5-5---5-7-7-7|
|3---3---3-3---10---10-10---10-10-10-10---5---5---5-5----5---5-5---5-7-7-7|
|3---3---3-3---10---10-10---10-10-10-10---5---5---5-5----5---5-5---5-7-7-7|

|-------------------------------------------------------------------------|
|-------------------------------------------------------------------------|
|-------------------------------------------------------------------------|
|3---3---3-3---10---10-10---10-10-10-10---5---5---5-5----5---7-7-7-7-5-5--|
|3---3---3-3---10---10-10---10-10-10-10---5---5---5-5----5---7-7-7-7-5-5--|
|3---3---3-3---10---10-10---10-10-10-10---5---5---5-5----5---7-7-7-7-5-5--|


 Guitar 2
|-------------------------------------------------------------------------|
|-------------------------------------------------------------------------|
|5-----12------9----9-9-----9--9--9--9----7---7---7-7----7---7-7---7-9-9-9|
|x-----x-------x----x-x-----x--x--x--x----x---x---x-x----x---x-x---x-x-x-x|
|3-----10------7----7-7-----7--7--7--7----5---5---5-5----5---5-5---5-7-7-7|
|-------------------------------------------------------------------------|

|-------------------------------------------------------------------------|
|-------------------------------------------------------------------------|
|5-----12------9----9-9-----9--9--9--9----7---7---7-7----7---9-9-9-9-7-7--|
|x-----x-------x----x-x-----x--x--x--x----x---x---x-x----x---x-x-x-x-x-x--|
|3-----10------7----7-7-----7--7--7--7----5---5---5-5----5---7-7-7-7-5-5--|
|-------------------------------------------------------------------------|

###Intro###
[00:45 > 00:51]

###Verse### (Guitar does 1st part as normal (x2), but after that play the same as guitar 1)
[00:51 > 01:03]


###Verse 2###
[01:03 > 01:15]

 Guitar 1
(play same as verse but in full power chords instead of root notes)

 Guitar 2
|--------------------------------------------------------------------|
|--------------------------------------------------10-----10-----10--|
|9---9---9---9-9-9---9---9-7-7-7---9---9---9---9------9-9----9-9----9|
|x---x---x---x-x-x---x---x-x-x-x---x---x---x---x---------------------|
|7---7---7---7-7-7---7---7-5-5-5---7---7---7---7---------------------|
|--------------------------------------------------------------------|
                                                      . .    . .    
|-----------------------------------------------------------------|
|-----------------------------------------------------------------|
|9---9---9---9-9-9---9---9-7-7-7---9---9---9---9---9---9----------|
|x---x---x---x-x-x---x---x-x-x-x---x---x---x---x---x---x---x-x-x-x|
|7---7---7---7-7-7---7---7-5-5-5---7---7---7---7---7---7---x-x-x-x|
|----------------------------------------------------------x-x-x-x|

###Chorus### x2
[01:15 > 01:40]


###Bridge###
[01:40 > 02:27]

 Guitar 1
|---| |----------------------------------|
|---| |----------------------------------|
|---| |-----------------------------5---5|
|-3-| |-----5-7-7-7-7-7-5-7-7-7-7-7---7--| x11
|-3-| |----------------------------------|
|-3-| |----------------------------------|

|-----------------------|
|-----------------------|
|-----------------------|
|10-10-10-10-10-10-10-10| x2
|10-10-10-10-10-10-10-10|
|10-10-10-10-10-10-10-10|

###Bridge 2#### x2
[02:27 > 02:54]

|-------------------------------------------------------------------|
|-------------------------------------------------------------------|
|-------------------------------------------------------------------|
|3---3---3-3----3---3-3---3-3-3-3---5---5---5-5----5---5-5---5-5-5-5|
|3---3---3-3----3---3-3---3-3-3-3---5---5---5-5----5---5-5---5-5-5-5|
|3---3---3-3----3---3-3---3-3-3-3---5---5---5-5----5---5-5---5-5-5-5|

|-------------------------------|
|-------------------------------|
|-------------------------------|
|10-7-7---7-7---7-7--7-7---5-5-5| x2
|10-7-7---7-7---7-7--7-7---5-5-5|
|10-7-7---7-7---7-7--7-7---5-5-5|

End on G..

d|3~
a|3~
D|3~

###Bridge###
[01:40 > 02:27]

 Guitar 2 (comes in on bar 25)    x3
|---------------------------15---12|-----------------------------------------------|
|15-15-15-12-12-12-13-13-13--------|13-13-13-13-13-13-13-13-15-15-15-15-15-15-15-15|
|----------------------------------|-----------------------------------------------|
|----------------------------------|-----------------------------------------------|
|----------------------------------|-----------------------------------------------|
|----------------------------------|-----------------------------------------------|

###Bridge2### x2 (let last note ring)
[02:27 > 02:54]
                                  x2
|---------------------------15---12|-----------------|
|15-15-15-12-12-12-13-13-13--------|17---13---15---10|  03:15]


###Outro### (guitar 1 plays intro once)
[03:15 > End]
            
Hard to play? Try these video lessons and learn fast. | Correct




comments powered by Disqus
↑ Back to top | Tablatures and chords are parodies/interpretations of the original songs. You may use it for private study, scholarship, research or language learning purposes only