» » »

Kiss And Tell Bass tabs (ver.1)

Artists:  A B C D E F G H I J K L M N O P Q R S T U V W X Y Z # 

Kiss And Tell Bass tabs (ver.1)

You Me At Six
Rating:
0/5 (0 votes)

Hard to play? Try these video lessons and learn fast.
                Okay this is my first tab, so bear with me....also i can tab out the various parts of 
song, but when the bass comes in you can decide for yourself becasue its up for debate (: 

Intro: Just Guitar (x6)

....In your hair.....
G-----------------------------------------|
D-----------------------------------------|
A-----------------------------------------| (x4)
E---5555--8--111--333---------------------|

After you've played that 4 times finish on a 5 before the chorus and let it ring.

Chorus:
....kiss and tell...
G-----------------------------------------|
D-----------------------------------------|
A-----------------------------------------| (x2)
E---1111--8888--3333--5555----------------|

Pause for 2 bars while guitar plays.

Verse:
....you make the rules...
G-----------------------------------------|
D-----------------------------------------|
A-----------------------------------------| (X8)
E---5555--8--111--333---------------------|

This time go straight into the chorus.

Chorus:
...kiss and tell....
G-----------------------------------------|
D-----------------------------------------|
A-----------------------------------------| (x4)
E---1111--8888--3333--5555----------------|

Let last note ring.

Breakdown:

Guitar plays for 4, then come in on the 5th.

...I know you dont need to tell me....
G-----------------------------------------|
D-----------------------------------------|
A-----------------------------------------| (x4)
E--55-------------------------------------|

...I Know you dont need to tell me....
G-----------------------------------------|
D-----------------------------------------|
A-----------------------------------------| (x1)
E--11-------------------------------------|

...I know you dont need to tell me...
G-----------------------------------------|
D-----------------------------------------|
A-----------------------------------------| (x1)
E--33-------------------------------------|

...I know you dont need to tell me...
G-----------------------------------------|
D-----------------------------------------|
A-----------------------------------------| (x4)
E--11-------------------------------------|

...I know you dont need to tell me...
G-----------------------------------------|
D-----------------------------------------|
A-----------------------------------------| (x1)
E--33-------------------------------------|

When it starts to properley breakdown you do this.

...I know you dont...
G-----------------------------------------|
D-----------------------------------------|
A-----------------------------------------|
E--55555-55555---33333-33333--------------|

...need to tell me...                           (x2)
G-----------------------------------------|
D-----------------------------------------|
A-----------------------------------------|
E--4444-4444-4444-4444--------------------|

KISS AND TELL

Chorus:
...everybody else
G-----------------------------------------|
D-----------------------------------------|
A-----------------------------------------|
E--3333--5555-----------------------------|

G-----------------------------------------|
D-----------------------------------------|
A-----------------------------------------| (x3)
E---1111--8888--3333--5555----------------|

Enjoy and i hope it's all right !
            
Hard to play? Try these video lessons and learn fast. | Correct




comments powered by Disqus
↑ Back to top | Tablatures and chords are parodies/interpretations of the original songs. You may use it for private study, scholarship, research or language learning purposes only