» » »

You Me At Six, Jealous Minds Think Alike Tabs (ver.2)

Artists:  A B C D E F G H I J K L M N O P Q R S T U V W X Y Z # 

Jealous Minds Think Alike Tabs (ver.2)

You Me At Six Tabs
 Rating:
4/5 (4 votes)
Jealous Minds Think Alike lessons Tabs too difficult? Try these video lessons and learn fast
1
                -------------------------------------------------------------------------------
                             SONG NAME - Band Name
-------------------------------------------------------------------------------

Tuning: Drop D

Ok, this is WAAAY better version than my previous tab :)

Guitar 1

Intro [x2]
e|----------------------------------------------------------------------|
B|----------------------------------------------------------------------|
G|--4-4-4-4-4-4-4-4-----------------------------------------------------|
D|--4-4-4-4-4-4-4-4--4-4-4-4-4-4-4-4--5-5-5-5-5-5-5-5--7-7-7-7-7-7-7-7--|
A|--2-2-2-2-2-2-2-2--4-4-4-4-4-4-4-4--5-5-5-5-5-5-5-5--7-7-7-7-7-7-7-7--|
E|-------------------4-4-4-4-4-4-4-4--5-5-5-5-5-5-5-5--7-7-7-7-7-7-7-7--|

Verse [x4]
E|---------------------------------------------------------------------|
B|---------------------------------------------------------------------|
G|---------------------------------------------------------------------|
D|--4-4-4-4-4-4-4-4-4-4-4-4-4-4-4-4------------------------------------|
A|--2-2-2-2-2-2-2-2-2-2-2-2-2-2-2-2--2-2-2-2-2-2-2-2--5-5-5-5-5-5-5-5--|
E|-----------------------------------2-2-2-2-2-2-2-2--5-5-5-5-5-5-5-5--|
    . . . . . . . . . . . . . . . .  . . . . . . . .  . . . . . . . .

Pre-Chorus [x4]
e|----------------------|
B|----------------------|
G|--4-4-----------------|
D|--4-4--4-4--2-2--7-7--|
A|--2-2--4-4--2-2--7-7--|
E|-------4-4--2-2--7-7--|

Pre-Pre-Chorus
e|--------------------------------------|
B|--------------------------------------|
G|--------------------------------------|
D|--2-2-2-2--5-5-5-5--2-2-2-2--7-7-7-7--|
A|--2-2-2-2--5-5-5-5--2-2-2-2--7-7-7-7--|
E|--2-2-2-2--5-5-5-5--2-2-2-2--7-7-7-7--|

Chorus [x2]
e|----------------------------------------------------------------------|
B|----------------------------------------------------------------------|
G|----------------------------------------------------------------------|
D|--0-0-0-0-0-0-0-0--7-7-7-7-7-7-7-7--9-9-9-9-9-9-9-9--5-5-5-5-5-5-5-5--|
A|--0-0-0-0-0-0-0-0--7-7-7-7-7-7-7-7--9-9-9-9-9-9-9-9--5-5-5-5-5-5-5-5--|
E|--0-0-0-0-0-0-0-0--7-7-7-7-7-7-7-7--9-9-9-9-9-9-9-9--5-5-5-5-5-5-5-5--|

Verse [x2]
e|---------------------------------------------------------------------|
B|---------------------------------------------------------------------|
G|--4-4-4-4-4-4-4-4-4-4-4-4-4-4-4-4------------------------------------|
D|--4-4-4-4-4-4-4-4-4-4-4-4-4-4-4-4--2-2-2-2-2-2-2-2--5-5-5-5-5-5-5-5--|
A|--2-2-2-2-2-2-2-2-2-2-2-2-2-2-2-2--2-2-2-2-2-2-2-2--5-5-5-5-5-5-5-5--|
E|-----------------------------------2-2-2-2-2-2-2-2--5-5-5-5-5-5-5-5--|

Pre-Chorus
e|--------------------------------------|
B|--------------------------------------|
G|--------------------------------------|
D|--2-2-2-2--5-5-5-5--2-2-2-2--7-7-7-7--|
A|--2-2-2-2--5-5-5-5--2-2-2-2--7-7-7-7--|
E|--2-2-2-2--5-5-5-5--2-2-2-2--7-7-7-7--|

Chorus [x2]
e|----------------------------------------------------------------------|
B|----------------------------------------------------------------------|
G|----------------------------------------------------------------------|
D|--0-0-0-0-0-0-0-0--7-7-7-7-7-7-7-7--9-9-9-9-9-9-9-9--5-5-5-5-5-5-5-5--|
A|--0-0-0-0-0-0-0-0--7-7-7-7-7-7-7-7--9-9-9-9-9-9-9-9--5-5-5-5-5-5-5-5--|
E|--0-0-0-0-0-0-0-0--7-7-7-7-7-7-7-7--9-9-9-9-9-9-9-9--5-5-5-5-5-5-5-5--|

Bridge [x4]
e|----------------------------------------------------------------------|
B|----------------------------------------------------------------------|
G|----------------------------------------------------------------------|
D|--0-0-0-0-0-0-0-0--7-7-7-7-7-7-7-7--0-0-0-0-0-0-0-0--7-7-7-7-7-7-7-7--|
A|--0-0-0-0-0-0-0-0--7-7-7-7-7-7-7-7--0-0-0-0-0-0-0-0--7-7-7-7-7-7-7-7--|
E|--0-0-0-0-0-0-0-0--7-7-7-7-7-7-7-7--0-0-0-0-0-0-0-0--7-7-7-7-7-7-7-7--|

Chorus [x4]
e|----------------------------------------------------------------------|
B|----------------------------------------------------------------------|
G|----------------------------------------------------------------------|
D|--0-0-0-0-0-0-0-0--7-7-7-7-7-7-7-7--9-9-9-9-9-9-9-9--5-5-5-5-5-5-5-5--|
A|--0-0-0-0-0-0-0-0--7-7-7-7-7-7-7-7--9-9-9-9-9-9-9-9--5-5-5-5-5-5-5-5--|
E|--0-0-0-0-0-0-0-0--7-7-7-7-7-7-7-7--9-9-9-9-9-9-9-9--5-5-5-5-5-5-5-5--|





Guitar 2
e|-------------------------------------------------------------------------------------|
B|-------------------------------------------------------------------------------------|
G|---16-16-16-16-16-16-16-16--11-11-11-11-11-11-11-11--9-9-9-9-9-9-9-9--7-7-7-7-7-7-7--|
D|-------------------------------------------------------------------------------------|  [x2]
A|---14-14-14-14-14-14-14-14--9--9--9--9--9--9--9--9---7-7-7-7-7-7-7-7--5-5-5-5-5-5-5--|
E|-------------------------------------------------------------------------------------|

Verse
e|----------------------|
B|----------------------|
G|--4~------4~----------|
D|------4~------4~--2~--|
A|----------------------|
E|----------------------|

Pre-Chorus [x4]
e|----------------------|
B|----------------------|
G|--4-4-----------------|
D|-------4-4--2-2--7-7--|
A|----------------------|
E|----------------------|


Chorus [x2]
e|----------------------------------------------------------------------------------------------|
B|----------------------------------------------------------------------------------------------|
G|--7-7-7-7-7-7-7-7--14-14-14-14-14-14-14-14--16-16-16-16-16-16-16-16--10-10-10-10-10-10-10-10--|
D|----------------------------------------------------------------------------------------------|
A|--5-5-5-5-5-5-5-5--12-12-12-12-12-12-12-12--14-14-14-14-14-14-14-14--8--8--8--8--8--8--8--8---|
E|----------------------------------------------------------------------------------------------|

I can't figure out the 2nd verse for Guitar 2. Sorry folks :(

Pre-Chorus
e|-------------------------------------------------|
B|-------------------------------------------------|
G|--7-7-7-7--10-10-10-10--7-7-7-7--14--14--14--14--|
D|-------------------------------------------------|
A|--5-5-5-5--8--8--8--8---5-5-5-5--12--12--12--12--|
E|-------------------------------------------------|

Chorus [x2]
e|----------------------------------------------------------------------------------------------|
B|----------------------------------------------------------------------------------------------|
G|--7-7-7-7-7-7-7-7--14-14-14-14-14-14-14-14--16-16-16-16-16-16-16-16--10-10-10-10-10-10-10-10--|
D|----------------------------------------------------------------------------------------------|
A|--5-5-5-5-5-5-5-5--12-12-12-12-12-12-12-12--14-14-14-14-14-14-14-14--8--8--8--8--8--8--8--8---|
E|----------------------------------------------------------------------------------------------|

Bridge [x4]
e|-------------------------------------------------|
B|-------------------------------------------------|
G|--6-7-7-7-6--6-7-7-7-6--14-14-14-14-14-14-14-14--|
D|-------------------------------------------------|
A|--4-5-5-5-4--4-5-5-5-4--12-12-12-12-12-12-12-12--|
E|-------------------------------------------------|

Chorus [x4]
e|----------------------------------------------------------------------------------------------|
B|----------------------------------------------------------------------------------------------|
G|--7-7-7-7-7-7-7-7--14-14-14-14-14-14-14-14--16-16-16-16-16-16-16-16--10-10-10-10-10-10-10-10--|
D|----------------------------------------------------------------------------------------------|
A|--5-5-5-5-5-5-5-5--12-12-12-12-12-12-12-12--14-14-14-14-14-14-14-14--8--8--8--8--8--8--8--8---|
E|----------------------------------------------------------------------------------------------|

End on
e|-----|
B|-----|
G|--7--|
D|-----|
A|--5--|
E|-----|



There you go
Pretty pants
But I gave it a shot :)

| /  slide up
| \  slide down
| h  hammer-on
| p  pull-off
| ~  vibrato
| +  harmonic
| x  Mute note
===============================================================================
            
Submit corrections

comments powered by Disqus
↑ Back to top | You Me At Six Tabs for Jealous Minds Think Alike. Lyrics for acoustic guitar and electric guitar. 1 Tablatures and chords are parodies/interpretations of the original songs. You may use it for private study, scholarship, research or language learning purposes only