» » »

Jealous Minds Think Alike Tabs (ver.1)

Artists:  A B C D E F G H I J K L M N O P Q R S T U V W X Y Z # 

Jealous Minds Think Alike Tabs (ver.1)

You Me At Six
Rating:
0/5 (0 votes)

Hard to play? Try these video lessons and learn fast.
                hey, this is my first tab,done by ear. it sound accurate :) enjoy!

~    =     let ring    PM    =     palm mute

intro:

e]------------------------------------------]
b]------------------------------------------]
g]------------------------------------------]
d]--99999999-44444444-55555555-77777777-----]do this 2 times.
a]--99999999-44444444-55555555-77777777-----]
D]--99999999-44444444-55555555-77777777-----]


verse:

e]-----------------------------------------]
b]-----------------------------------------]
g]-----------------------------------------]
d]--9999999999999999-22222222-55555555-----]do this 4 times.
a]--9999999999999999-22222222-55555555-----]
D]--9999999999999999-22222222-55555555-----]
    xxxxxxxxxxxxxxxx xxxxxxxx xxxxxxxx    PM

bridge:

e]-----------------------]
b]-----------------------]
g]-----------------------]
d]--9-9-4-4-2-2-7-77-----]play this 4 times
a]--9-9-4-4-2-2-7-77-----]
D]--9-9-4-4-2-2-7-77-----]

pre chorus:

e]--------------------------]
g]--------------------------]
b]--------------------------]
d]--2----5----2----7777-----]
a]--2----5----2----7777-----]
D]--2----5----2----7777-----]


chorus:

e]-------------------------------------------------------------------------]
g]-------------------------------------------------------------------------]
b]-------------------------------------------------------------------------]
d]--0-0-0-0-0-0-0-0--7-7-7-7-7-7-7-7--9-9-9-9-9-9-9-9--5-5-5-5-5-5-5-5-----]
a]--0-0-0-0-0-0-0-0--7-7-7-7-7-7-7-7--9-9-9-9-9-9-9-9--5-5-5-5-5-5-5-5-----]
D]--0-0-0-0-0-0-0-0--7-7-7-7-7-7-7-7--9-9-9-9-9-9-9-9--5-5-5-5-5-5-5-5-----]
                  do this 2 times

thats just a simple strum pattern, the song has a more complicated one that i cant be 
to tab figure it yourself :P. lol

intro again:
e]------------------------------------------]
b]------------------------------------------]
g]------------------------------------------]
d]--99999999-44444444-55555555-77777777-----]do this 1 time.
a]--99999999-44444444-55555555-77777777-----]
D]--99999999-44444444-55555555-77777777-----]

verse 2:

e]-----------------------------------------------------------]
g]-----------------------------------------------------------]
b]-----------------------------------------------------------]
d]--9-9-9-9-9-9-9-9-9-9-9-9-9-9-9-9--222~-222~-555~-555~-----]repeat twice
a]--9-9-9-9-9-9-9-9-9-9-9-9-9-9-9-9--222~-222~-555~-555~-----]
D]--9-9-9-9-9-9-9-9-9-9-9-9-9-9-9-9--222~-222~-555~-555~-----]

then:


e]--------------------------]
g]--------------------------]
b]--------------------------]
d]--2----5----2----7777-----]
a]--2----5----2----7777-----]
D]--2----5----2----7777-----]


2nd chorus:
e]-------------------------------------------------------------------------]
g]-------------------------------------------------------------------------]
b]-------------------------------------------------------------------------]
d]--0-0-0-0-0-0-0-0--7-7-7-7-7-7-7-7--9-9-9-9-9-9-9-9--5-5-5-5-5-5-5-5-----]
a]--0-0-0-0-0-0-0-0--7-7-7-7-7-7-7-7--9-9-9-9-9-9-9-9--5-5-5-5-5-5-5-5-----]
D]--0-0-0-0-0-0-0-0--7-7-7-7-7-7-7-7--9-9-9-9-9-9-9-9--5-5-5-5-5-5-5-5-----]
                            play this twice
then play this:


e]-----------------------------------------]
g]-----------------------------------------]
b]-----------------------------------------]
d]--779-97-779-97-5-55~-555~-555~-555~-----]play this 4 times.
a]--779-97-779-97-5-55~-555~-555~-555~-----]last time end on open D.
D]--779-97-779-97-5-55~-555~-555~-555~-----]

final chorus:
e]-------------------------------------------------------------------------]
g]-------------------------------------------------------------------------]
b]-------------------------------------------------------------------------]
d]--0-0-0-0-0-0-0-0--7-7-7-7-7-7-7-7--9-9-9-9-9-9-9-9--5-5-5-5-5-5-5-5-----]
a]--0-0-0-0-0-0-0-0--7-7-7-7-7-7-7-7--9-9-9-9-9-9-9-9--5-5-5-5-5-5-5-5-----]
D]--0-0-0-0-0-0-0-0--7-7-7-7-7-7-7-7--9-9-9-9-9-9-9-9--5-5-5-5-5-5-5-5-----]
                           play this 4 times... allmost there.

end on:

e]---------]
g]---------]
b]---------]
d]--0~-----]
a]--0~-----]
D]--0~-----]
            
Hard to play? Try these video lessons and learn fast. | Correct




comments powered by Disqus
↑ Back to top | Tablatures and chords are parodies/interpretations of the original songs. You may use it for private study, scholarship, research or language learning purposes only