» » »

You Me At Six, Fireworks Tabs (ver.3)

Artists:  A B C D E F G H I J K L M N O P Q R S T U V W X Y Z # 

Fireworks Tabs (ver.3)

You Me At Six Tabs
 Rating:
3.3/5 (6 votes)
Fireworks lessons Tabs too difficult? Try these video lessons and learn fast
1
                Artist- You Me At Six
Song- Fireworks
Album- Hold Me Down
Tuning- Drop D or Standard (just depends you play the last part)

This is how I play it.

Intro & Verse 1
e---------------------------------------------------------------------|        (x5)
b--7--7--7--7--4--4--4--4--7--7--7--7--6--6--6--6---------------------|
g----6--6--6--6--6--6--6--6--6--6--6--6--6--6--6----------------------|
d---------------------------------------------------------------------|
a---------------------------------------------------------------------|
D---------------------------------------------------------------------|

Pre Chorus
e-------------------------------------------------------------|
b--7--7--7--7--7--7--7--7--7--7--7--7--7--7--7--7-------------|
g--6--6--6--6--6--6--6--6--6--6--6--6--6--6--6--6-------------|
d-------------------------------------------------------------|
a-------------------------------------------------------------|
D-------------------------------------------------------------|

Chorus
e-----------------------------------------------------------------------------------------------|
b--7--7--7--7--7--7--7--7--4--4--4--4--4--4--4--4--7--7--7--7--7--7--7--7--6--6--6--6-----------|
g--6--6--6--6--6--6--6--6--6--6--6--6--6--6--6--6--6--6--6--6--6--6--6--6--6--6--6--6-----------|
d-----------------------------------------------------------------------------------------(x2)--|
a-----------------------------------------------------------------------------------------------|
D-----------------------------------------------------------------------------------------------|

Verse 2
e-----------------------------------------------------------------------|          (x2)
b--7--7--7--7--4--4--4--4--7--7--7--7--6--6--6--6-----------------------|
g----6--6--6--6--6--6--6--6--6--6--6--6--6--6--6------------------------|
d-----------------------------------------------------------------------|
a-----------------------------------------------------------------------|
D-----------------------------------------------------------------------|

Then…
e--14--13--9--11--9--11----(x3)--then--14--13--9--11—9--------------|
b-------------------------------------------------------------------|
g-------------------------------------------------------------------|
d-------------------------------------------------------------------|
a-------------------------------------------------------------------|
D-------------------------------------------------------------------|

Chorus

Bridge (highly doubt this is right, sorry)
e-------------6-----------------------------------------------------------|
b--9--7---------7------9--7------------------7-----let ring---------------|
g--------6----------6---------(x6)---then----6----------------------------|
d-------------------------------------------------------------------------|
a-------------------------------------------------------------------------|
D-------------------------------------------------------------------------|

I don’t know who you are…
e---------------------------------------------------------------------------------|
b---------------------------------------------------------------------------------|
g-------------------------------6--6--6--6--6--6--6--6----4--4--4--4--4--4--4--4--|
d--4--4--4--4--4--4--4--4----6--6--6--6--6--6--6--6----4--4--4--4--4--4--4--4-----|
a--4--4--4--4--4--4--4--4----4--4--4--4--4--4--4--4----2--2--2--2--2--2--2--2-----|
d--4--4--4--4--4--4--4--4---------------------------------------------------------|

Repeat the above until the end of the song, I end on the first power chord and let it 
out because I think it sounds cool xD

Leah. Thanks (=
            
Submit corrections

comments powered by Disqus
↑ Back to top | You Me At Six Tabs for Fireworks. Lyrics for acoustic guitar and electric guitar. 1 Tablatures and chords are parodies/interpretations of the original songs. You may use it for private study, scholarship, research or language learning purposes only