>
 >
Fireworks 1

Fireworks 1 Guitar Tabs

You Me At Six - Fireworks 1 chords, tabs, tablatures, lyrics

Guitar lessons | Add/correct | Request | Top 50 tabs Artists:  A B C D E F G H I J K L M N O P Q R S T U V W X Y Z 0-9

Fireworks 1 Guitar Tabs – You Me At Six

CD, Sheet music, Poster

Do you like Fireworks 1? Share with your friends now
ChordsChords v2Chords v3Chords v4TabsTabs v2Tabs v3Tabs v4Tabs v5Ukulele
-------------------------------------------------------------------------------
                                                   YOU ME AT SIX - FIREWORKS
-------------------------------------------------------------------------------

Please Email me with any suggestions/corrections.

Tuning: GUITAR ONE - STANDARD EADGBE
        GUITAR TWO - DROP D   DADGBE
        GUITAR THREE STANDARD EADGBE

INTRO

Guitar One: (with echo)

e|---------------------------------------------------------------------------|
B|--7---7---7---7---4---4---4---4---7---7---7---7---6---6---6---6------------|
G|----6---6---6---6---6---6---6---6---6---6---6---6---6---6---6---6----------|
D|---------------------------------------------------------------------------|
A|---------------------------------------------------------------------------|
E|---------------------------------------------------------------------------|


e|---------------------------------------------------------------------------|
B|--7---7---7---7---4---4---4---4---7---7---7---7---6---6---6---6------------|
G|----6---6---6---6---6---6---6---6---6---6---6---6---6---6---6---6----------|
D|---------------------------------------------------------------------------|
A|---------------------------------------------------------------------------|
E|---------------------------------------------------------------------------|

VERSE: (0:24)

Guitar One: (with echo)

e|---------------------------------------------------------------------------|
B|--7---7---7---7---4---4---4---4---7---7---7---7---6---6---6---6------------|
G|----6---6---6---6---6---6---6---6---6---6---6---6---6---6---6---6----------| 
D|---------------------------------------------------------------------------|
A|---------------------------------------------------------------------------|
E|---------------------------------------------------------------------------|


e|---------------------------------------------------------------------------|
B|--7---7---7---7---4---4---4---4---7---7---7---7---9---9---9---9------------|
G|----6---6---6---6---6---6---6---6---6---6---6---6---6---6---6---6----------| REPEAT VERSE (X2)
D|---------------------------------------------------------------------------|
A|---------------------------------------------------------------------------|
E|---------------------------------------------------------------------------|


Guitar Two: (with echo)           
   
    F#
e|---------------------------------------------------------------------------|
B|---------------------------------------------------------------------------|
G|--11-----------------------------------------------------------------------| REPEAT VERSE (X2)
D|--11-----------------------------------------------------------------------|
A|--9------------------------------------------------------------------------|
D|---------------------------------------------------------------------------|


BRIDGE: (1:12)

Guitar One: (with echo)

    C R E S C E N D O  T H R O U G H...
e|-------------------------------------------|
B|--7---7---7---7---7---7---7---7------------|
G|----6---6---6---6---6---6---6---6----------|
D|-------------------------------------------|
A|-------------------------------------------|
E|-------------------------------------------|

Guitar Two: (with echo)           
   
    F#
e|-------------------------------------------|
B|-------------------------------------------|
G|--11---------------------------------------|
D|--11---------------------------------------|
A|--9----------------------------------------|
D|-------------------------------------------|


CHORUS: (1:19)

Guitar One: (with echo)

e|------------------------------------6---6---6---6---6---6---6---6--|
B|--7---7---9---9---6---6---7---7---7---7---7---7---7---7---7---7---7|
G|----6---6---6---6---6---6---6---6----------------------------------|
D|-------------------------------------------------------------------|
A|-------------------------------------------------------------------|
E|-------------------------------------------------------------------|

e|------------------------------------6---6---6---6---6---6---6---6--|
B|--7---7---9---9---6---6---7---7---7---7---7---7---7---7---7---7---7|
G|----6---6---6---6---6---6---6---6----------------------------------|
D|-------------------------------------------------------------------|
A|-------------------------------------------------------------------|
E|-------------------------------------------------------------------|

Guitar Two: (with echo)           
   
    F#sus2                          F#m9
e|-----------------------------------------------------------------|
B|--9---9---9---9---9---9---9---9---9---9---9---9---9---9---9---9--|
G|--11--11--11--11--11--11--11--11--10--10--10--10--10--10--10--10-| REPEAT FOUR TIMES (X4)
D|--11--11--11--11--11--11--11--11--11--11--11--11--11--11--11--11-|
A|--9---9---9---9---9---9---9---9---9---9---9---9---9---9---9---9--|
D|-----------------------------------------------------------------|


VERSE: (1:43)

Guitar One: (with echo)

e|------------------------------------------------------------------------|
B|--7---7---7---7---4---4---4---4---7---7---7---7---9---9---9---9---------|
G|----6---6---6---6---6---6---6---6---6---6---6---6---6---6---6---6-------|REPEAT VERSE
D|------------------------------------------------------------------------| FOUR TIMES!!
A|------------------------------------------------------------------------|
E|------------------------------------------------------------------------|


Guitar Two: (echo and slight distortion)           

e|------------------------------------------------------------------------|
B|------------------------------------------------------------------------|
G|------------------------------------------------------------------------| (X2)
D|--4---4---4---4---1---1---1---1---4---4---4---4---6---6---6---6---------|
A|--4---4---4---4---4---4---4---4---4---4---4---4---4---4---4---4---------|
D|------------------------------------------------------------------------|   
    


    (with echo)
e|--14------13------------------------------14-------13----------------------|
B|------------------14---16---14---16----------------------14---16---14---16-|
G|---------------------------------------------------------------------------|(X2)
D|---------------------------------------------------------------------------|
A|---------------------------------------------------------------------------|
D|---------------------------------------------------------------------------|

CHORUS: (2:32)

Guitar One: (with echo)

e|------------------------------------6---6---6---6---6---6---6---6--|
B|--7---7---9---9---6---6---7---7---7---7---7---7---7---7---7---7---7|
G|----6---6---6---6---6---6---6---6----------------------------------|
D|-------------------------------------------------------------------|
A|-------------------------------------------------------------------|
D|-------------------------------------------------------------------|

e|------------------------------------6---6---6---6---6---6---6---6--|
B|--7---7---9---9---6---6---7---7---7---7---7---7---7---7---7---7---7|
G|----6---6---6---6---6---6---6---6----------------------------------|
D|-------------------------------------------------------------------|
A|-------------------------------------------------------------------|
D|-------------------------------------------------------------------|

Guitar Two: (with echo)           
   
    F#sus2                          F#m9
e|-----------------------------------------------------------------|
B|--9---9---9---9---9---9---9---9---9---9---9---9---9---9---9---9--|
G|--11--11--11--11--11--11--11--11--10--10--10--10--10--10--10--10-| REPEAT FOUR TIMES (X4)
D|--11--11--11--11--11--11--11--11--11--11--11--11--11--11--11--11-|
A|--9---9---9---9---9---9---9---9---9---9---9---9---9---9---9---9--|
D|-----------------------------------------------------------------|


BRIDGE (2:56)

Guitar One: (with echo)
e|---------6----------|    |--6------------------|
B|---9-7-----7---9-7--|    |--7------------------|
G|-------6-----6------| x6 |--6------------------|
D|--------------------|    |---------------------|
A|--------------------|    |---------------------|
D|--------------------|    |---------------------|


Guitar Two (slight dist.) 

   F#

e|---------------------|
B|---------------------|
G|--11-----------------| x7
D|--11-----------------|
A|--9------------------|
D|---------------------|


CHORUS (WITH CHANGED LYRICS):

GUITAR ONE:
         
I donít know...
e---------------------------------------------------------------------------------|
B|---------------------------------------------------------------------------------|
G|-------------------------------6--6--6--6--6--6--6--6----4--4--4--4--4--4--4--4--|
D|--4--4--4--4--4--4--4--4----6--6--6--6--6--6--6--6----4--4--4--4--4--4--4--4-----|
A|--4--4--4--4--4--4--4--4----4--4--4--4--4--4--4--4----2--2--2--2--2--2--2--2-----|
D|--4--4--4--4--4--4--4--4---------------------------------------------------------|

Guitar Three: (with slight reverb, echo)


e|--------------------------------14141414141414141414141414141414-----------|
B|14141414141414141414141414141414-------------------------------------------|
G|---------------------------------------------------------------------------| (x4)
D|---------------------------------------------------------------------------|
A|---------------------------------------------------------------------------|
E|---------------------------------------------------------------------------|


CHORUS TWO(WITH CHANGED LYRICS): (3:45)

GUITAR ONE: (with echo)

e|------------------------------------6---6---6---6---6---6---6---6--|
B|--7---7---9---9---6---6---7---7---7---7---7---7---7---7---7---7---7|
G|----6---6---6---6---6---6---6---6----------------------------------|
D|-------------------------------------------------------------------|
A|-------------------------------------------------------------------|
E|-------------------------------------------------------------------|

e|------------------------------------6---6---6---6---6---6---6---6--|
B|--7---7---9---9---6---6---7---7---7---7---7---7---7---7---7---7---7|
G|----6---6---6---6---6---6---6---6----------------------------------|
D|-------------------------------------------------------------------|
A|-------------------------------------------------------------------|
E|-------------------------------------------------------------------|

Guitar Two: (with echo)           
   

e---------------------------------------------------------------------------------|
B|---------------------------------------------------------------------------------|
G|-------------------------------6--6--6--6--6--6--6--6----4--4--4--4--4--4--4--4--|
D|--4--4--4--4--4--4--4--4----6--6--6--6--6--6--6--6----4--4--4--4--4--4--4--4-----|
A|--4--4--4--4--4--4--4--4----4--4--4--4--4--4--4--4----2--2--2--2--2--2--2--2-----|
D|--4--4--4--4--4--4--4--4---------------------------------------------------------|

Guitar Three: (with echo)

e|---------6----------|   
B|---9-7-----7---9-7--|    
G|-------6-----6------| (x8)
D|--------------------|    
A|--------------------| 
E|--------------------|


OUTRO:

Guitar One:

e|-------------------------------------6\--|
B|---6-6-6-6-7-7-7-7-9-9-9-9-7-7-7-7---7\--|
G|---6-6-6-6-6-6-6-6-6-6-6-6-6-6-6-6---6\--|
D|-----------------------------------------|
A|-----------------------------------------|
E|-----------------------------------------|





Comments


Popular You Me At Six tabs & chords
Loverboy 4 Bass Tabs
Youve Made Your Bed Bass Tabs
Liquid Confidence 2 Chords
Rescue Me 2 Chords
Safer To Hate Her Chords
Crash 1 Tabs
Kiss And Tell 2 Tabs
Safer To Hate Her Intro Tabs
Underdog Tabs
Call That A Comeback Ukulele


Song lyrics



↑ Back to top | Tablatures and chords are parodies/interpretations of the original songs. You may use it for private study, scholarship, research or language learning purposes only
© 2014 AZChords.com Contact us | Privacy policy | DMCA | Add/correct tabs | Request tabs | Top 50 tabs