>
 >
Alive

Alive Bass Tabs

X Japan - Alive chords, tabs, tablatures, lyrics

Guitar lessons | Add/correct | Request | Top 50 tabs Artists:  A B C D E F G H I J K L M N O P Q R S T U V W X Y Z 0-9

Alive Bass Tabs – X Japan

CD, Sheet music, Poster

Do you like Alive? Share with your friends now
Bass TabsBass Tabs v2TabsTabs v2

ALIVE (Bassline)



	



Gtr I (E A D G B E) - 'Vocals'
Gtr II (Eb Ab Db Gb) - 'Finger Bass'

  Q=75
 4/4
  Gtr I
  W          W          W          W
|----------|----------|----------|------|
|----------|----------|----------|------|
|----------|----------|----------|------|
|----------|----------|----------|------|
|----------|----------|----------|------|
|----------|----------|----------|------|


  Q=82                         Q=75
                       2/4    4/4
  W          W          W      W      W
|----------|----------|------|------|------|
|----------|----------|------|------|------|
|----------|----------|------|------|------|
|----------|----------|------|------|------|
|----------|----------|------|------|------|
|----------|----------|------|------|------|


             Q=37       Q=69
  W          W          W          W
|----------|----------|----------|------|
|----------|----------|----------|------|
|----------|----------|----------|------|
|----------|----------|----------|------|
|----------|----------|----------|------|
|----------|----------|----------|------|


  W          W          W          W
|----------|----------|----------|------|
|----------|----------|----------|------|
|----------|----------|----------|------|
|----------|----------|----------|------|
|----------|----------|----------|------|
|----------|----------|----------|------|


  W          H    Q  E E   E E +Q   E E E E   H    Q  E S S
|----------|-----------4-|-6--------6-4-2-4-|-6---------4-2--|
|----------|-------------|---4-(4)----------|----------------|
|----------|-------------|------------------|----------------|
|----------|-------------|------------------|----------------|
|----------|-------------|------------------|----------------|
|----------|-------------|------------------|----------------|


  E E +Q   E. S +E  E   H    Q  E E   E E +Q   E E E E   H    E E +E  E
|-4--------1--2-(2)-4-|-2---------4-|-6--------6-4-2-4-|-6------4-(4)-2-|
|---2-(2)-------------|-------------|---4-(4)----------|----------------|
|---------------------|-------------|------------------|----------------|
|---------------------|-------------|------------------|----------------|
|---------------------|-------------|------------------|----------------|
|---------------------|-------------|------------------|----------------|


  E E +Q   E. S +E  E   H    E E E E   Q  Q  Q.   S S   Q  Q  Q.   S S
|-4--------1--2-(2)-4-|-2------6-6-6-|-6--7--6----6-4-|-6--7--6----6-7-|
|---2-(2)-------------|--------7-7-7-|-7--9--7----7-6-|-7--9--7--------|
|---------------------|--------------|----------------|----------------|
|---------------------|--------------|----------------|----------------|
|---------------------|--------------|----------------|----------------|
|---------------------|--------------|----------------|----------------|


  Q  E  E  Q.    S S    Q   Q   Q.    S  S
|-9------------------|---------------------|
|----9-11-12----11-9-|-11--12--11----11--9-|
|--------------------|---------------11-10-|
|--------------------|---------------------|
|--------------------|---------------------|
|--------------------|---------------------|


   Q   Q   Q.    S  S    Q   Q   Q.    S  S
|---------------------|---------------------|
|-11--12--11----11--9-|-11--12--11----11-12-|
|-11--13--11----11-10-|-11--13--11----------|
|---------------------|---------------------|
|---------------------|---------------------|
|---------------------|---------------------|


                         Q=67            Q=81
                                        1/4  4/4
   Q   E  E  Q.    S S    Q   Q   H      W    W
|----------------------|---------------|----|------------------------------|
|-14-----11-12----11-9-|-11--12--11----|----|------------------------------|
|-----13---------------|---------------|----|------------------------------|
|----------------------|---------------|----|------------------------------|
|----------------------|---------------|----|------------------------------|
|----------------------|---------------|----|------------------------------|
|
| Gtr II
|  W                      W              W    E S S S S S S E S S S S S S
|----------------------|---------------|----|------------------------------|
|----------------------|---------------|----|------------------------------|
|----------------------|---------------|----|------------------------------|
|----------------------|---------------|----|-0-0-0-0-0-0-0-0-0-0-0-0-0-0--|


  Gtr II
  E S S S S S S E S S Q
|------------------------|
|---------------------2--|
|------------------------|
|-0-0-0-0-0-0-0-0-0-0----|


  E S S S S S S E S S S S S S   E S S S S S S E E +Q
|-----------------------------|------------------------|
|-----------------------------|-----------------2-(2)--|
|-----------------------------|------------------------|
|-0-0-0-0-0-0-0-0-0-0-0-0-0-0-|-0-0-0-0-0-0-0-0--------|


  Gtr I
  E   E E E   E   E  E    E     +E   E Q   H
|-----------------------------|-----------------------|
|-----9-9-9---9---7--6----7---|-(7)-------------------|
|-----------------------------|-----------------------|
|-----------------------------|-----------------------|
|-----------------------------|-----------------------|
|-----------------------------|-----------------------|
|
| Gtr II
| Q..       S S S E +S  S S S    Q..     S S S E S E.
|-----------2-7---------------|------------5---5-5-7--|
|-0---------------------------|----------5---5--------|
|-----------------5-(5)---5---|--3--------------------|
|---------------5-------5---5-|-----------------------|


  E   E E E   E   E  E     E
|------------------------------|
|-----9-9-9---9---7--9----11---|
|------------------------------|
|------------------------------|
|------------------------------|
|------------------------------|
|
| Q..       S S S E +S  S  S S
|-------------7----------------|
|-----------7------------------|
|-5---------------5-(5)----5---|
|---------------5-------5----5-|


   +Q.         E   H
|-----------------------------------|
|-(11)------------------------------|
|-----------------------------------|
|-----------------------------------|
|-----------------------------------|
|-----------------------------------|
|
|   E  E +S  E   S S S S S S S S  S
|-----------------------------------|
|------9-(9)-7---5-4-2-4-5----------|
|--------------------------5--------|
|---7------------------------7-8-10-|


  E  E    E  E  E    E    E    E    E  E    +E   E  +E    E Q
|--------------------------------|-------------------------------|
|---11---11-11-11---11----9----7-|--9-11---(11)-11-(11)----------|
|---11---11-11-11---11---10----8-|-10-11---(11)-11-(11)----------|
|--------------------------------|-------------------------------|
|--------------------------------|-------------------------------|
|--------------------------------|-------------------------------|
|
| E  S S  Q     S S  S S +S  S E    E  S S   Q       S  S E E E
|--------------------------------|----------------------2-7------|
|--------------------2-2-(2)---2-|--0--0-----0-------0------5-7--|
|-----------------2----------2---|-------0-----------------------|
|-0--0-0-12----12----------------|-------------------------------|


  E  E    E  E  E    E    E     E
|---------------------------------|
|---11---11-11-11---11----9----11-|
|---11---11-11-11---11---10----11-|
|---------------------------------|
|---------------------------------|
|---------------------------------|
|
| E  S S  Q     S S  S S +S  S  E
|---------------------------------|
|---------------------------------|
|---------7-----7----7-7-(7)----7-|
|-0--0-0----------7----------7----|


   E  E    E     E    +E     E     E    S S   +Q.    E   Q      E    S S
|--9--------------------------------------7-|-(7)---------------6----7-6-|
|-11-11----9----11---(11)----9-----9----7-9-|-(9)---------------7----9-6-|
|----11---10----11---(11)-------------------|----------------------------|
|-------------------------------------------|----------------------------|
|-------------------------------------------|----------------------------|
|-------------------------------------------|----------------------------|
|
|  E  S S +S  E    S   S  S  S  S  S  S S S    Q..     S S S E +S  S S S
|-------------------------------------------|----------------------------|
|-----7-9-(9)-7----5------------------------|----------------------------|
|--5-------------------7--9-10----12-10-0---|------------3---3-(3)---3---|
|------------------------------12---------7-|--8-------3---3-------3---3-|


  +Q.         E   H            W                     W
|-(6)------------------------|---------------------|-------------------|
|-(6)------------------------|---------------------|-------------------|
|----------------------------|---------------------|-------------------|
|----------------------------|---------------------|-------------------|
|----------------------------|---------------------|-------------------|
|----------------------------|---------------------|-------------------|
|
|  E. S +S  S S S S S E S E.   Q..   S S S E +E  E   Q..   S E E +E  E
|-----4-(4)---2-3-4---2-8----|---------------------|-------------------|
|-----------4-------4-----9--|---------------------|-------------------|
|--2-------------------------|-7-------7---7-(7)---|-3-------3-3-(3)-3-|
|----------------------------|-------7---7-------3-|-------3-----------|


  Gtr II
  S E S S S S S S E S S S E   Q  S S E S E S +S  S E   Q..   S S S E +E  E
|-------7-------------------|----5-------------------|---------------------|
|-----7---------------9-----|------5-----7-5-(5)-4---|---------------------|
|-5-5---------------9-------|-3------3-5-----------5-|-7-------7---7-(7)---|
|---------5-7-8-7-7-----2-3-|------------------------|-------7---7-------3-|


  Q..   S E E +S  E.   E E S S S S S E S S S S S   H    S S E +Q
|--------------------|-----7---------------------|-----------------|
|--------------------|-------7-5-----------------|-----------------|
|-3-------3-3-(3)-3--|-5-5-------3-2-2-2-----0-2-|-3----5---5-(5)--|
|-------3------------|-------------------2-2-----|--------5--------|


  E S S Q  H       Q   +S   S  E  +S   S  E  +E  E   E S S Q  S E S +S  S E
|----------9----|----------------------------------|------------------------|
|---------------|-------------12-(12)--------------|------------------------|
|-------7-------|----------12---------12-----------|-3-3-3-3--3-----------3-|
|-0-0-0---------|-10--(10)---------------10-(10)-3-|------------0-2-(2)-3---|


  E S S +S  S S S S E. Q    E S S +S  S S S S  S  E  +S  S E
|-------------2-3-4-------|-----------4-9---9-11-12-(12)-----|
|-----4-(4)-4-------4-----|-2-2-2-(2)-----9----------------2-|
|-2-2------------------2--|------------------------------2---|
|-------------------------|----------------------------------|


  Q  E S S S S  E  +S   S  E
|----2-7---7-9-11-(11)-11-12-|
|-0------7-------------------|
|----------------------------|
|----------------------------|


  Gtr I
  W                        W                           Q    Q   E   E   E   E
|------------------------|---------------------------|----------------------2-|
|------------------------|---------------------------|-4----4-------4---4---4-|
|------------------------|---------------------------|-4----4-------4---4-----|
|------------------------|---------------------------|------------------------|
|------------------------|---------------------------|------------------------|
|------------------------|---------------------------|------------------------|
|
| Gtr II
| E S S  E S S S S E E E   E S S +S  E S +S  E S E E   Q..    S S S S S S S E
|--------------------5-5-|---------------------------|------------------------|
|-------10---------------|-----9-(9)-7-5-(5)-4-2-1---|------------------------|
|------------------3-----|---9---------------------2-|-3--------3---3-5-3---3-|
|-8-8-8----8-8-8-3-------|-7-------------------------|--------3---3-------3---|


  H    H                 Q    Q   E   E   E   E   H       Q      E    E
|-4--------------------|-2----2-------1---2---4-|-6--------------4----6-|
|-6--------------------|-4----4-------2---4---6-|-6---------------------|
|----------------------|------------------------|-----------------------|
|----------------------|------------------------|-----------------------|
|----------------------|------------------------|-----------------------|
|----------------------|------------------------|-----------------------|
|
| H    S S S S S S S S   Q..    S S S S S S S E   E E E E S E S +S  S E
|----------------------|------------------------|-----4-2-4-2-0-(0)-----|
|----------------------|------------------------|---4---------------4---|
|-2----2-------0-2-0---|-3--------3---3-5-3---3-|-2-------------------2-|
|--------0-2-3-------3-|--------3---3-------3---|-----------------------|


   Q     Q     E.      S  +E     E
|----------------------------------|
|-16----------16------14-(14)---16-|
|-16----------16------15-(15)---16-|
|----------------------------------|
|----------------------------------|
|----------------------------------|
|
|  E S S E. S  S  S S  S  +S  S  E
|--------2----------2--2--(2)------|
|-----------2-----2----------------|
|--0-0-0-------0-----------------0-|
|-----------------------------0----|


   Q     Q    Q        E   E    Q     Q     E    E  E     E
|----------------------------|-11---------------11-11----11-|
|-14----------------------11-|-12---------------12-14----12-|
|-15------------------13-----|------------------------------|
|----------------------------|------------------------------|
|----------------------------|------------------------------|
|----------------------------|------------------------------|
|
|  E S S E. S S S S S +E   E    E S S E S S S S  E +S  S  E
|-------------------4-(4)----|------------------------------|
|--------5----5---5--------5-|-------------------3-(3)----5-|
|-----------5---5------------|----------------3--------3----|
|--3-3-3---------------------|--1-1-1-1-1-1-1---------------|


   Q    Q        Q       E    E      H          E    E    E     E
|-11---11-------------------------|-11--------------11----9----11--|
|-11---11----------------9---11---|-12--------------12---11----12--|
|---------------------------------|--------------------------------|
|---------------------------------|--------------------------------|
|---------------------------------|--------------------------------|
|---------------------------------|--------------------------------|
|
|  E E +S  S S S S S S S S S  S S    E S S E. S S S  S S +S  S  E
|------------7-8-9----------------|--------------------------------|
|----------9-------9-7-9-7-7------|--------7---------7-7-(7)-------|
|----7-(7)--------------------7-7-|-----------7---7----------------|
|--0------------------------------|--5-5-5------5------------0--5--|


   Q     Q     Q       E    E      Q     Q      E.      S  +E     E
|--9----------------------------|-11--------------------------------|
|-11-------------------9---11---|-12-----------12------11-(11)---12-|
|-------------------------------|-----------------------------------|
|-------------------------------|-----------------------------------|
|-------------------------------|-----------------------------------|
|-------------------------------|-----------------------------------|
|
|  E S S S E S S S S S S S  S S    E S S S E S  S  S S  S   S  S  E
|----------------------0--------|--------5------------------0-------|
|--------5-----------0----------|-----------------------2------2----|
|----------5---5---2--------0-2-|--3-3-3--------3----3------------3-|
|--3-3-3-----3---3-------3------|----------3-3-----3----------------|


   Q     Q      Q      S  E     S
|---------------------------------|
|-14-----------14--------------14-|
|------------------------15-------|
|---------------------------------|
|---------------------------------|
|---------------------------------|
|
|  E S S S E S  S S E  S  S  E
|------------2--7---7-10----------|
|--------3--------7------12-------|
|--5-5-5---2----------------12----|
|---------------------------------|


   H     H      W
|-13----------|---------------------------------|
|-------------|---------------------------------|
|-------------|---------------------------------|
|-------------|---------------------------------|
|-------------|---------------------------------|
|-------------|---------------------------------|
|
|  H     H      S S S S S S S S S S S S S S S S
|-------------|---------------------------------|
|-------------|---------9---------------9-------|
|-------------|---------------------------------|
|-11----10----|-7-7-7-7---7-7-7-7-7-7-7---7-7-7-|


  Gtr II
  H    H      S S S S S S S S S S S S S S S S
|-----------|-4-------4---------------4-------|
|-----------|---------------------------------|
|-6----5----|---2-2-2---2-2-2-2-2-2-2---2-2-2-|
|-----------|---------------------------------|


  S S S S S S S S S S S S S S S S   S S S S S S S S S S S S S S S S
|---------------------------------|---------------------------------|
|---------------------------------|---------------------------------|
|-0-0-0-0-0-0-0-0-0-0-0-0-0-0-0-0-|-2-2-2-2-2-2-2-2-2-2-2-2-2-2-2-2-|
|---------------------------------|---------------------------------|


  S S S S S S S S S S S S S S S S   S S S S S S S S S S  S  S  S  S S  S
|---------------------------------|---------------------11--9-11--9-9-11-|
|---------------------------------|------------------------10----10---15-|
|-0-0-0-0-0-0-0-0-0-0-0-0-0-0-0-0-|-2-2-2-2-2-2-2-2-2-2------------------|
|---------------------------------|--------------------------------------|


  S S S S S S S S S S S S S S S S   S S S S S S S S S S S S S S S  S
|---------------------------------|-------------------------2-4-7--9-|
|---------------------------------|---------1-----------------8---13-|
|-0-0-0-0-----------------3-0-0-0-|-2-2-2-2---2-2-2-2-2-2-2----------|
|---------8-5-5-5-5-5-5-5---------|----------------------------------|


  S S S S S S S S S S S S S S S S   S S S S S S S S S S S S S S S S
|---------------------------------|---------------------------------|
|---------------------------------|-------------------------4-2---4-|
|-0-0-0-0-----------------3-0-0-0-|-2-2-2-2-2-2-2-2-2-2-2-2---------|
|---------8-5-5-5-5-5-5-5---------|---------------------------------|


  Gtr I
  W
|---------------------------------|
|---------------------------------|
|---------------------------------|
|---------------------------------|
|---------------------------------|
|---------------------------------|
|
| Gtr II
| S S S S S S S S S S S S S S S S
|---------------------------------|
|-5-4---5-------------------------|
|---------------0-2-0---2-3-2---3-|
|---------5-3---------------------|


  H       E  S  S  +E     E    Q     E  S S  Q     S  E  S
|---------------------------|-------------------------------|
|--------------11-(11)---11-|-11-------11-9-11-----9-11-12--|
|---------------------------|-------------------------------|
|---------------------------|-------------------------------|
|---------------------------|-------------------------------|
|---------------------------|-------------------------------|
|
| Q.   E +E.    S   S  S  E    E S S Q       E S S Q
|------4-(4)--------4--4--7-|-------------------------------|
|---------------4------4----|-------------------------------|
|-2-------------------------|-------------------------------|
|---------------------------|--0-0-0-0-------2-2-2-2--------|


   Q     Q  H         Q     E    S  S  E    E    E    E
|-------------------|-----------------------------------|
|-11----------------|-----------12-11-12---12---14---16-|
|-------------------|-----------------------------------|
|-------------------|-----------------------------------|
|-------------------|-----------------------------------|
|-------------------|-----------------------------------|
|
|  E S S Q  E E E E   E S S S S  E     S E    S  S S  E
|-------------------|-------2--------------------5------|
|-------------------|---------2---------------5----5----|
|-----------------2-|-0-0-0------0-----3-3------------3-|
|--3-3-3-3--4-0-4---|-----------------------------------|


   H        H
|-------------------------|
|-15----------------------|
|-------------------------|
|-------------------------|
|-------------------------|
|-------------------------|
|
|  E. S E E S E S S  S  E
|-------2-3-4-4-8-9-10-11-|
|-----4-----4-------------|
|--2----------------------|
|-------------------------|


  Q     E  S  S  Q     S  E  S    Q     Q  H
|------------------------------|-------------------|
|---------------11-----9-11-12-|-11----------------|
|---------15-13----------------|-------------------|
|------------------------------|-------------------|
|------------------------------|-------------------|
|------------------------------|-------------------|
|
| E S S Q        E S S Q          E S S Q  E E E E
|------------------------------|-------------------|
|------------------------------|-------------------|
|------------------------------|-----------------2-|
|-0-0-0-0--------2-2-2-2-------|--3-3-3-3--4-0-4---|


  Q     S  E    S  Q      +S   E    S
|-------------------------------------|
|---------12---11-12-----(12)-14---16-|
|-------------------------------------|
|-------------------------------------|
|-------------------------------------|
|-------------------------------------|
|
| E S S S  S E     S E S   S   S E
|-------2------------------5----------|
|----------2-----------5-------5------|
|-0-0-0------0-----3-3-----------3----|
|-------------------------------------|


   Q       Q       H             Q   E.    S  Q      +S   E    S
|------------------------------|----------------------------------|
|-15---------------------------|----16----16----------------------|
|------------------------------|----16----16-18-----(18)----------|
|------------------------------|-------------18-----(18)-20---18--|
|------------------------------|-------------------------21---20--|
|------------------------------|----------------------------------|
|
|  S S S S S S S S S S S S E E   Q   E  S  S  S S E  +S   S S  S
|--4-------4-------4-----------|-----5----------------------------|
|----4-------4-------4---------|--------------------------7-------|
|------2-2-----2-2-----2-2-0-2-|-3------3--4--5---5--(5)----5-----|
|------------------------------|----------------3--------------5--|


   H            H
|---------------------------|
|---------------------------|
|---------------------------|
|-20------------------------|
|-21------------------------|
|---------------------------|
|
|  E. S S S S S S S E S S E
|---------------------9-8---|
|-------5---7-8-9---9-----9-|
|-----5---5-------9---------|
|--3------------------------|


  Q   E.    S  Q      +S   E  S    S  E  S  +Q   H
|-------------------------------|------------------------|
|-------------------------------|------------------------|
|-------------------------------|-20----20-(20)----------|
|----21----21-23-----(23)-20-21-|----23------------------|
|----21----21-20-----(20)-21-20-|-21-20-21-(21)----------|
|-------------------------------|------------------------|
|
| Q   E  S  S  S S E  +S   E  S    Q         Q   Q  E E
|-------------------------------|------------------------|
|----10-------------------------|------------------------|
|------------------5--(5)-----5-|-------------------0-2--|
|-8------8--9-10-3---------7----|--0---------2---3-------|


  Q   E.    S  Q      +S   E    S
|---------------------------------|
|---------------------------------|
|----20----20-18-----(18)---------|
|----21----21-18-----(18)-20---18-|
|-------------------------21---20-|
|---------------------------------|
|
| Q   E  S  S  S S E  +S   S S  S
|-----5---------------------------|
|--------------------------7------|
|-3------3--4--5---5--(5)----5----|
|----------------3--------------5-|


   E   S  S  Q       H             Q   E.    S  Q      +S   E  S
|--------------------------------|--------------------------------|
|--------------------------------|--------------------------------|
|-----18-------------------------|----------------------------18--|
|-20--20-18-20-------------------|----21----21-23-----(23)-20-----|
|-21-----20-21-------------------|----21----21-20-----(20)--------|
|--------------------------------|--------------------------------|
|
|  E.     S  S S S S S S E S S E   Q   E  S  S  S S E  +S   E  S
|--------------------------9-8---|--------------------------------|
|------------5---7-8-9---9-----9-|----10--------------------------|
|---------5----5-------9---------|------------------5--(5)-----5--|
|--3-----------------------------|-8------8--9-10-3---------7-----|


   S    S  E  +Q     E     E  E  E
|----------------------------------|
|-16---14-16-(16)------------------|
|-------------------------15-13-11-|
|-------------------------16-15-13-|
|----------------------------------|
|----------------------------------|
|
|  Q..            S +S  S  E  E  E
|----------------------------------|
|-----------------------9----------|
|--7--------------7-(7)----------9-|
|----------------------------------|


   E    S  S  +Q     +E     E    E     S S    E    E  E  E  E.  S  +E   E
|------------------------------------------|--------------------------------|
|---------11-(11)---(11)---------------9-7-|--9-------------------------9---|
|-13---13-10-(10)---(10)--------------10-8-|-10------------10--11-(11)-10---|
|-12---12----------------------------------|------11-11-11-12--13-(13)------|
|------------------------------------------|--------------------------------|
|------------------------------------------|--------------------------------|
|
|  Q..            S  +S   E   S +S  E    S    S S  E  E  E  Q.          S S
|------------------------------------------|--------------------------------|
|------------------------10---9-(9)-7----5-|----7-----------------------7-9-|
|-----------------9--(9)-------------------|----------5--5--6---------------|
|--7---------------------------------------|--------------------------------|


  Q    Q   Q      E    S  S    E    E  +Q     E     E    E    E
|---------------------------|-------------------------------------|
|-7-----------------------9-|-11-------------------11----9----7---|
|-8----------------------10-|-11---11-(11)---------11---10----8---|
|---------------------------|------13-(13)------------------------|
|---------------------------|-------------------------------------|
|---------------------------|-------------------------------------|
|
| Q..    S S E S +S  E    S    Q..         S +S  E    S +S  E   S
|---------------------------|-------------------------------------|
|---------------------------|--2-----------2-(2)-2----2-(2)-4---5-|
|-7-------------------------|-------------------------------------|
|--------5-7-5-3-(3)-2----0-|-------------------------------------|


  E   S S +Q    +E     E  E  S S
|-------4-(4)---(4)------------2--|
|-6---6-6-(6)---(6)------------4--|
|-7---7---------------------------|
|---------------------------------|
|---------------------------------|
|---------------------------------|
|
| Q..         S  S   S E +Q
|---------------------------------|
|----------------9--10-9-(9)------|
|-------------9-------------------|
|-7-------------------------------|


   E  E    +Q         E.   S +E  E   H             H
|--4------------------1----2-(2)-4-|-7---------------------------|
|--6--2----(2)---------------------|-9---------------------------|
|----------------------------------|-----------------------------|
|----------------------------------|-----------------------------|
|----------------------------------|-----------------------------|
|----------------------------------|-----------------------------|
|
|  E  S  S  S   S  E  E  E   +Q      E S S S S S S E S S S S S S
|----------------------------------|-----------------------------|
|-----------------12---------------|-----------------------------|
|----------------------------------|-----------------------------|
|-10-10-10-10--10----11--7---(7)---|-1-1-1-1-1-1-1-1-1-1-1-1-1-1-|


                                                             2/4
  Gtr II
  E S S S S S S E S S S S S S   E S S S S S S E S S S S S S   E S S S S S S
|-----------------------------|-----------------------------|----------------|
|-----------------------------|-----------------------------|----------------|
|-----------------------------|-----------------------------|----------------|
|-1-1-1-1-1-1-1-1-1-1-1-1-1-1-|-1-1-1-1-1-1-1-1-1-1-1-1-1-1-|-1-1-1-1-1-1-1--|


 4/4
  Gtr I
  W               W
|---------------|-----------------------------|
|---------------|-----------------------------|
|---------------|-----------------------------|
|---------------|-----------------------------|
|---------------|-----------------------------|
|---------------|-----------------------------|
|
| Gtr II
| Q  Q  Q  S E.   Q.    E  S  S S  S S  S S S
|---------------|-----------------------------|
|-3--1----------|---------10--9-7--6------6-8-|
|-------4-------|------10----13---10-8--8-----|
|------------6--|-8--------------------11-----|


  Q   E.    S  Q      +S   S  E
|---------------------------------|
|----17----17---------------------|
|----17----17-19-----(19)---------|
|-------------19-----(19)-21-19---|
|-------------------------22-21---|
|---------------------------------|
|
| Q   E  S  S  S S E  +S   S  S S
|--------------------------3------|
|----11------------1--(1)-----1---|
|----------------1--------------1-|
|-9------9-10-11------------------|


   H               H
|----------------------------------|
|----------------------------------|
|----------------------------------|
|-21-------------------------------|
|-22-------------------------------|
|----------------------------------|
|
|  E. S +S  S S S  S  S  E  S S  E
|--------------------------10-9----|
|-------------8-9-10----10------10-|
|-----6-(6)-6--------10------------|
|--4-------------------------------|


  Q   E.    S  Q      E     E      S  E  S  +Q   H
|-------------------------------|-----------------------|
|-------------------------------|-----------------------|
|-------------------------------|-21----21-(21)---------|
|----22----22-24-----------24---|----24-----------------|
|----22----22-21-----------21---|-22-21-22-(22)---------|
|-------------------------------|-----------------------|
|
| Q   E  S  S  S S E +S  S  S S    Q         Q   Q  E E
|-------------------------------|-----------------------|
|----11------------1-(1)----1-2-|-----------------------|
|----------------1-------1------|-----------------------|
|-9------9-10-11----------------|--1---------3---4--6-8-|


  Q   E.    S  Q      +S   S  E
|---------------------------------|
|---------------------------------|
|----21----21-19-----(19)---------|
|----22----22-19-----(19)-21-19---|
|-------------------------22-21---|
|---------------------------------|
|
| Q   E  S  S  S S E  +S   S  S S
|--------------------------3------|
|----11------------1--(1)-----1---|
|----------------1--------------1-|
|-9------9-10-11------------------|


   E   S  S  Q         H                 Q   E  E     E    E  E  S  S
|--------------------------------------|-------------------------------|
|--------------------------------------|-------------------------------|
|-----19-------------------------------|-------------------------------|
|-21--21-19-21-------------------------|----22-22----24---24-------24--|
|-22-----21-22-------------------------|----22-22----24---24-------24--|
|--------------------------------------|-------------------------------|
|
|  E.     S +S  S S S  S  S  E  S S  E   Q   E  S  S  S S  E +E.    S
|------------------------------10-9----|---------------------------12--|
|-----------------8-9-10----10------10-|----11-------------1-(1)-------|
|---------6-(6)-6--------10------------|----------------1--------------|
|--4-----------------------------------|-9------9-10-11----------------|


   S  E     S  +Q     H         W                     W
|-----------------------------|---------------------|--------------------------|
|-----------------------------|---------------------|--------------------------|
|-21-19----21-(21)------------|---------------------|--------------------------|
|-21-19----21-(21)------------|---------------------|--------------------------|
|-----------------------------|---------------------|--------------------------|
|-----------------------------|---------------------|--------------------------|
|
|  E     E      E   E E E E E   E E E E S E S +E  E   E S S S S E E. S +S  S E
|-----------------------5---5-|-------------------5-|------------------------6-|
|-------15---------15---------|---6---6-----7-(7)---|-------8--------6-(6)-6---|
|---------------------3---3---|---------8-8---------|---------8---4------------|
|-13-----------13-------------|-4---4---------------|-6-6-6-----6--------------|


  H                  E     S  S  +E      E
|------------------------------------------|
|------------------------------------------|
|------------------------------------------|
|----------------------------21-(21)----21-|
|------------------------------------------|
|------------------------------------------|
|
| E.  S  +S   S S S  S  S  S  S   S   S  E
|-----------------------------9--10--11-12-|
|---------------8-9-10----10---------------|
|----10-(10)-10--------10------------------|
|-8----------------------------------------|


   Q     E  S  S  Q      S  E    S    Q     Q   H
|----------------------------------|-----------------------|
|----------------------------------|-----------------------|
|----------------------------------|-----------------------|
|-21-------21-19-21-----19-21---22-|-21--------------------|
|----------------------------------|-----------------------|
|----------------------------------|-----------------------|
|
|  E S S E  E     E S S  E    E       E S S E E E. S +E  E
|----------------------------------|---------------2-(2)-5-|
|--------3---------------5---------|--------6---3----------|
|----------------------------------|-----------------------|
|--1-1-1----1-----3-3-3-------3----|--4-4-4---4------------|


  Q     S  E    S  Q     S   E    S    H         +E  E Q
|-----------------------------------|---------------------|
|-----------------------------------|---------------------|
|--------------------------------21-|-20--------(20)------|
|---------22---21-22--------24------|---------------------|
|-----------------------------------|---------------------|
|-----------------------------------|---------------------|
|
| E S S S  S E     E. S +S   S E       Q   E  E   H
|------------------------------6----|---------------------|
|-------8-------------6-(6)--6------|-----10-----10-------|
|----------8-------4----------------|--------10-----------|
|-6-6-6------6----------------------|--8------------------|


  Q   E.    S  Q        +S   S  E
|------------------------------------|
|------------------------------------|
|----21----21-19-------(19)----------|
|----22----22-19-------(19)-21-19----|
|---------------------------22-21----|
|------------------------------------|
|
| Q   E  S  S  S  S  E   S   S  S  S
|------------------------------------|
|----11-----------------13-----------|
|----------------13---------13----13-|
|-9------9-10-11----11---------11----|


   H             H
|--------------------------------|
|--------------------------------|
|--------------------------------|
|-21-----------------------------|
|-22-----------------------------|
|--------------------------------|
|
|  E. S S S S S  S  S  E  S S  E
|------------------------10-9----|
|-------8---8-9-10----10------10-|
|-----6---6--------10------------|
|--4-----------------------------|


  Q   E  E     S  E.     E     S  S    S  E  S  +Q   S  E.  E  E
|-----------------------------------|----------------------------|
|-----------------------------------|----------------------------|
|--------------------------------19-|-21-19-21-(21)----21--21-21-|
|-------22----22-24-----------21-19-|-21-19-21-(21)--------------|
|-------22----22-24-----------22----|----------------------------|
|-----------------------------------|----------------------------|
|
| Q   E  S  S  S  S   E  S  S  E       Q         Q   Q      E  E
|-----------------------------------|----------------------------|
|----11-----------------13----------|----------------------------|
|----------------13--------13-------|----------------------------|
|-9------9-10-11-----11-------11----|--1---------3---4------6--8-|


   Q   S  E    S  Q        S  S  E
|-------------------------------------|
|-------------------------------------|
|-21-----21---21-19-------------------|
|--------22---22-19----------21-19----|
|----------------------------22-21----|
|-------------------------------------|
|
|  Q   E    S  S  S  S  E  S  S  S  S
|-------------------------------------|
|-----11------------------13----------|
|-------------------13-------13----13-|
|--9--------9-10-11----11-------11----|


                                        Q=61                        Q=88
   E   S  S  Q        H                 Q   E.      S  +S   E.  +Q
|-------------------------------------|-------------------------------|
|-------------------------------------|-------------------------------|
|-----19------------------------------|-------------------------------|
|-21--19-19-21------------------------|----22------22-(22)-24--(24)---|
|-22-----21-22------------------------|----22------22-(22)-24--(24)---|
|-------------------------------------|-------------------------------|
|
|  E.     S  S S S S  S  S  E  S S  E   Q   S  S S  S   H
|-----------------------------10-9----|-------------------------------|
|------------8---8-9-10----10------10-|----11-------------------------|
|---------6----6--------10------------|-------------------------------|
|--4----------------------------------|-9------9---10--11-------------|


                           Q=76
 5/4                      4/4
    Q   Q   Q   Q   E  E    H     +E  E Q
|------------------------|-----------------|
|------------------17-15-|-17----(17)------|
|--------------19--------|-----------------|
|----------21------------|-----------------|
|------------------------|-----------------|
|------------------------|-----------------|
|
|  +H       Q   Q   Q       W
|------------------------|-----------------|
|------------------------|-----------------|
|------------------------|-----------------|
|-(11)-------------------|-----------------|


  W                  W
|-----------------|------------------------|
|-----------------|------------------------|
|-----------------|------------------------|
|-----------------|------------------------|
|-----------------|------------------------|
|-----------------|------------------------|
|
| H    E  E  E  E    Q   E  S  S  Q.    E
|--------15-15-15-|------------------------|
|-----------------|-17-----17-18-------17--|
|-----------------|-----18-------19--------|
|-----------------|------------------------|


   H         Q   E  E    E  S  S  +S   E.   Q   E  S  S
|---------------------|---------------------------------|
|---------------------|---------------------------------|
|---------------------|---------------------------------|
|---------------------|-21------------------------------|
|---------------------|----22-22-(22)-22----------22-22-|
|------------------19-|---------------------------------|
|
|  Q.    E  +H           H                 +Q.     E
|---------------------|---------------------------13----|
|-15------------------|-15----------------(15)----------|
|-------15-(15)-------|---------------------------------|
|---------------------|---------------------------------|


   Q  Q  Q  E  S  S    H     S  E.  E  S  S
|-------------------|-----------------------|
|-------------------|-----------------------|
|-------------------|-----------------------|
|-------------------|-----------------------|
|-21----------21-22-|-24----21-21--22-21-19-|
|-------------------|-----------------------|
|
|  W                   H     H
|-12----------------|-12----12--------------|
|-14----------------|-13----14--------------|
|-------------------|-----------------------|
|-------------------|-----------------------|


   +Q   Q      H         H       Q      S   S  E
|----------------------|---------------------------|
|----------------------|---------------------------|
|----------------------|---------------------------|
|----------------------|---------------------------|
|-(19)-----------------|-------------------21-22---|
|----------------------|---------------------------|
|
|   Q.     E  +Q    Q    Q..   S S S E +E      S S
|--13-----17-(17)------|---------------------------|
|--15------------------|-3-------3---3-(3)-----3-5-|
|----------------------|-------3---3---------------|
|------------------18--|---------------------------|


   E    S  S  +Q     +S   S  E   Q
|----------------------------------------|
|----------------------------------------|
|----------------------------------------|
|----------------------------------------|
|-21---19-21-(21)---(21)-----------------|
|----------------------------------------|
|
|  Q..            S   S   S  E  +E   S S
|-----------------5---9------------------|
|------------------------10--------------|
|--7-------------------------------------|
|---------------------------12-(12)-12-8-|


  H       S  S  E  E     E      +S    E.  +S  S E   H
|----------------------------|-----------------------------------|
|----------------------------|-----------------------------------|
|----------------------------|-----------------------------------|
|----------------------------|-----------------------------------|
|-----------21-21-22----21---|-(21)--19--(19)--------------------|
|----------------------------|-----------------------------------|
|
| Q..   S S  S  E +S  S  S S     Q..              S S E S +S  E.
|---------------------5--3---|--------------------5--------------|
|--------------------------5-|---3-------------------------------|
|-6-------7-----7-(7)--------|----------------------3-1----------|
|-------8----8---------------|--------------------------4-(4)-3--|


   H        +Q..            S
|------------------------------|
|------------------------------|
|------------------------------|
|-21-------(21)------------23--|
|------------------------------|
|------------------------------|
|
|  Q..   S   S   S E +E  E
|------------------------------|
|--3---------------3-(3)-5-----|
|--------3-------3-------------|
|------------1-----------------|


  Q=72                         Q=5
   H       H                   W
|----------------------------|-----------|
|----------------------------|-----------|
|----------------------------|-----------|
|----------------------------|-----------|
|-24-------------------------|-----------|
|----------------------------|-----------|
|
|  Q..   S S  S  E  +E   S S   H    H
|--------5-9-----------------|-----------|
|------------10--------------|-----------|
|--7-------------------------|-6---------|
|---------------12-(12)-12-8-|------8----|


  Q=69                     Q=108
   S  E  S  +S   E. H       E  S  S  +Q    +S   E.  +Q
|------------------------|-------------------------------|
|------------------------|-------------------------------|
|------------------------|-------------------------------|
|------------------------|-------------------------------|
|-21-21-22-(22)-21-------|-22-21-22-(22)--(22)-21--(21)--|
|------------------------|-------------------------------|
|
|  W                        W
|------------------------|-------------------------------|
|------------------------|-------------------------------|
|------------------------|-------------------------------|
|------------------------|-------------------------------|


   H     +Q.   E
|-------------------*|
|-------------------*|
|-------------------*|
|-------------------*|
|-19----(19)--------*|
|-------------------*|



Duration Legend
---------------
W - whole; H - half; Q - quarter; E - 8th; S - 16th; T - 32nd; X - 64th; a - acciaccatura
+ - note tied to previous; . - note dotted; .. - note double dotted
Uncapitalized letters represent notes that are staccato (1/2 duration)
Irregular groupings are notated above the duration line
Duration letters will always appear directly above the note/fret number it represents the
duration for.  Duration letters with no fret number below them represent rests.  Multi-
bar rests are notated in the form Wxn, where n is the number of bars to rest for.  Low
melody durations appear below the staff

Tablature Legend
----------------
 h   - hammer-on
 p   - pull-off
 b   - bend
 pb  - pre-bend
 r   - bend release (if no number after the r, then release immediately)
 /\  - slide into or out of (from/to "nowhere")
 s   - legato slide
 S   - shift slide
 - natural harmonic
[n]  - artificial harmonic
n(n) - tapped harmonic
 ~   - vibrato
 tr  - trill
 T   - tap
 TP  - trem. picking
 PM  - palm muting
\n/  - tremolo bar dip; n = amount to dip
 \n  - tremolo bar down
 n/  - tremolo bar up
/n\  - tremolo bar inverted dip
 =   - hold bend; also acts as connecting device for hammers/pulls
 <> - volume swell (louder/softer)
 x   - on rhythm slash represents muted slash
 o   - on rhythm slash represents single note slash

Misc Legend
-----------
 |  - bar
||  - double bar
||o - repeat start
o|| - repeat end
*|  - double bar (ending)
 :  - bar (freetime)
 $  - Segno
 &  - Coda
Tempo markers -  = BPM(8/16=s8/s16), where s8 = swing 8ths, s16 = swing 16ths





Comments


Popular X Japan tabs & chords
Art Of Life 2 Bass Tabs
Dahlia 2 Bass Tabs
Rusty Nail Bass Tabs
Kurenai Chords
Tears Chords
20th Century Boy Tabs
Alive 1 Tabs
Drain Tabs
Endless Rain 1 Tabs
Endless Rain 5 Tabs


Song lyrics



↑ Back to top | Tablatures and chords are parodies/interpretations of the original songs. You may use it for private study, scholarship, research or language learning purposes only
© 2014 AZChords.com Contact us | Privacy policy | DMCA | Add/correct tabs | Request tabs | Top 50 tabs