>
 >
Alive

Alive Guitar Tabs

X Japan - Alive chords, tabs, tablatures, lyrics

Guitar lessons | Add/correct | Request | Top 50 tabs Artists:  A B C D E F G H I J K L M N O P Q R S T U V W X Y Z 0-9

Alive Guitar Tabs – X Japan

CD, Sheet music, Poster

Do you like Alive? Share with your friends now
Bass TabsBass Tabs v2TabsTabs v2
X JAPAN - ALIVE (ACCOUSTIC GUITAR)

This the accoustic guitar arrange from X Japan's cd "On Guitar"

talk about X Japan!

Tuning: E,A,D,G,B,E

Roadmap: Intro,A,B,C,D,E,F,G,B,G,End




Intro

||-----0--------------|-----2--------------|
||-----0--------------|-----0--------------|
||--------------------|--------------------|
||---2----------------|---2----------------|
||--------------------|--------------------|
||-0------------------|-0------------------| x2

|------------------|-----3-----3-----3-----3-|
|------------------|---5-----5-----5-----5---|
|----------------4-|-------4-----4-----4-----|
|------------------|-------------------------|
|------------------|-------------------------|
|--------------0---|-------------------------|

|-----3-----3-----3-----3-|-----3-----3-----5-----5-|
|---5-----5-----5-----5---|---5-----5-----6-----6---|
|-4-----4-----4-----4-----|-5-----5-----5-----5-----|
|-0-----------------------|-------------------------|
|-------------------------|-3-----------------------|
|-------------------------|-------------5-----------|

|-----5-----3-----2-----||
|---4-----4-----4-------||
|-4-----4-----4---------||
|-----------------------||
|-----------------------||
|-----------------------||



A

||------------7--5--|-7------------------------8--|-7------5-3-2--------3p2-|
||------------8--7--|-8-----------------------10--|-8------7-5-3-----3------|
||------------------|------9---9---9---9---9------|---------------2---------|
||------------------|----9---9---9-------9--------|-0----------0------------|
||------------------|-----------------------------|-------------------------|
||------------------|-0--------------0------------|-------------------------|

|-3--------0-2-3--------3--|-2----3----5-------5--||
|-------1------------1-----|-3----5----7----------||
|----0------------0--------|----------------------||
|--------------------------|----------------------||
|-0------------0-----------|-2--------------------||
|--------------------------|----------------------||



B

||-7------------7--5-----|-5--7-------------5p3-|-5-----------------5--|
||-8------------------8--|----------------------|-7---------7---8------|
||----9------------------|----------------------|----7-----------------|
||-----------------------|----------------------|----------------------|
||-----------------------|-6---------6----------|-5---------6----------|
||-0---------0-----------|----------------------|----------------------|

|-------------7------------|-7------------7--5-----|
|-8---------8-8-----8--10--|-8------------------8--|
|-9-------9------9---------|----9------------------|
|-------9------------------|-----------------------|
|--------------------------|-----------------------|
|-0------------------------|-0---------0-----------|

|-5--7----------5------|-5---------------------||
|---------------7------|-7--8------7---8---10--||
|-------------------7--|-----------------------||
|----------------------|-----------------------||
|-6---------6----------|-5---------6-----------||
|----------------------|-----------------------||



C

||-------------7--7--7--|
||-8-----------8--8--8--|
||-9--------------------|
||----------------------|
||----------------------|
||-0--------0-----------|

|-7----8----7------7-5-|-7----8----7------7/8-|-10-----------------7-5-|
|-8---10----8------8-7-|-8---10----8----------|-10---10/12-13----------|
|----------------------|----------------------|------------14----------|
|----------------------|-0---------0----------|------------------------|
|----------------------|----------------------|-------------0----------|
|-0---------0----------|----------------------|--8---------------------|

|-7-------8-------7------7-5-|
|-----7-------7---7------8-7-|
|---8---8---8---8------------|
|----------------------------|
|----------------------------|
|-7--------------------------|

|-7----8----7------7-5-|-7----8----7------7/8-|-10-----------------7-5-|
|-8---10----8------8-7-|-8---10----8----------|-10---10/12-13----------|
|----------------------|----------------------|------------14----------|
|----------------------|-0---------0----------|------------------------|
|----------------------|----------------------|-------------0----------|
|-0---------0----------|----------------------|--8---------------------|

|-7-------8-------7--------------7--|----------------||
|-----7-------7---7-----------7-----|----------------||
|---8---8---8---8----------8--------|----------------||
|-----------------------9-----------|----------------||
|--------------------9--------------|----------------||
|-7---------------7-----------------|----------------||



D

||-----------7-5-7---------8-7-|--8--------10--8-10-------------|
||-----------8-7-8--------10-8-|-10--------12-10-12-------------|
||-----------------------------|--------------------------------|
||-----------------------------|--------------------------------|
||-----------------------------|--------------------------------|
||-0--0-0-0------0--0-0-0------|--0--0-0-0--------0--0-0-0--0-0-|

|-----------7-5-7---------8-7-|--8--------10--8-10-------------|
|-----------8-7-8--------10-8-|-10--------12-10-12-------------|
|-----------------------------|--------------------------------|
|-----------------------------|--------------------------------|
|-----------------------------|--------------------------------|
|-0--0-0-0------0--0-0-0------|--0--0-0-0--------0--0-0-0--0-0-|

|----5--5--5--5--3--2--3--|-------------------0-----|
|----7--7--7--7-----------|-------------1--------1--|
|-------------------------|-------0--------0--------|
|-0-----------------------|----2-----2--------------|
|-------------------------|-3-----------------------|
|-------------------------|-------------------------|

|----5--5--5--5-----5--7--|----------------------7--|
|----7--7--7--7--8--------|-------------7-----7-----|
|-------------------------|----------8-----8--------|
|-0-----------------------|-------9-----------------|
|-------------------------|----9--------------------|
|-------------------------|-7-----------------------|

|----7--7--7--7--7--5--3--|-5--7----7----------------|
|----8--8--8--8--8--7--5--|-7--8----8-----7h8--10----|
|-------------------------|--------------------------|
|-------------------------|-0----------0-------------|
|-------------------------|--------------------------|
|-0-----------------------|--------------------------|

|----7--7--7--7--7--5--7--|-10-----------------------------|
|----8--8--8--8--8--7--8--|-12--12--10--12----10--10--8-10-|
|-------------------------|--------------------------------|
|-------------------------|--0-----------------------------|
|-------------------------|--------------------------------|
|-0-----------------------|--------------------------------|

|------------------------7-|--------------------||
|------------------8--10-7-|--------------------||
|--------------------------|-----------8--------||
|-------9------------------|-----------9--------||
|---10----10---------------|--------9-----------||
|-8-----------8------------|-7------------------||



E

|-3-----3--------3--3--5--|-7-----------------------|
|-5-----5--------5--5-----|-7-----------------------|
|----5-----5--------------|-------8-----------8-----|
|-------------------------|----9-----9-----9-----9--|
|-3-----------3-----------|-------------9-----------|
|-------------------------|-------------------------|

|-7-----7-----------------|
|-7-----7--------7--8-10--|
|-------------------------|
|----9-----9--------------|
|-9-----------9-----------|
|-------------------------|

|-7-----------7-------7--|--8--------------8---7---8--|
|-7-----------7---10-----|-10-------------10---8--10--|
|----------8-------------|--------9-------------------|
|-------9----------------|----10----10----------------|
|----9-------------------|--0-----------0-------------|
|-7----------------------|----------------------------|

|-7----------------5--7--|--8-------------8-10--8--|
|-8----0-----0-----------|-10------------10--------|
|------0-----0-----------|-------10----------------|
|---0-----0-----0--------|----10----10-------------|
|------------------------|--8----------8-----------|
|-0----------------------|-------------------------|

|-7--------------------7--|
|-8----------------10-----|
|-------9-----------------|
|----9-----9-----9--------|
|-------------------------|
|-0-----------0-----------|

|--8-------------8---7--8--|-7---------7-------7--|
|-10------------10---8-10--|-8---------8---10-----|
|--------9-----------------|--------9-------------|
|----10----10--------------|-9--------------------|
|--0----------0------------|----------------------|
|--------------------------|----------------------|

|-8-----------8-------8--|-10--------10----9-10--|-14----------14----------||
|----------8-10--12------|-----------------------|----------13-13----------||
|-------9----------------|-11--------11----------|-------14----14----------||
|---10-------------------|--0------0-------------|----12-------12----------||
|------------------------|-----------------------|-------------------------||
|-8----------------------|-----------------------|-----------------------0-||



F

||-------------------------|----------------------0--|
||-0-----------0-------0h1-|-0-----------------1-----|
||-------04p2-------2-----|-------0-----------------|
||----2-----------2--------|----0-----0-----2--------|
||-------------------------|-------------0-----------|
||-------------2-----------|-3-----------------------|

|-----------------------0--|-------0-----2-----3--2--|
|----------1p0-1--1--3-----|-4-----------------3--3--|
|-------2------------------|----0-----0-----0--------|
|----2---------------------|-------------------------|
|-0------------3-----------|-------------------------|
|--------------------------|-------------------------|

|-------------------------|----------------------0--|
|-------------0-------0h1-|-0-----------------1-----|
|--------4p2-------2-----|-------0-----------------|
|-------2--------2--------|----0-----0-----2--------|
|----2--------------------|-------------0-----------|
|-0-----------2-----------|-3-----------------------|

|-------------------------0-|-------0-----2--------||
|----------1p0-1--------3---|-4-----------4--------||
|-------2------0-----0------|----0-----0-----------||
|----2------------2---------|----------------------||
|-0------------3------------|----------------------||
|---------------------------|----------------------||



G

||------12-12-10-----------|-7----------------------|
||-------8-----------12-10-|-8----------------------|
||----9-------11-----------|---------------------9--|
||-------------0-----------|-9-------9--------9-----|
||-------------------------|------7--------7--------|
||-8-----------------------|------------7-----------|

|-------8--8-10--------10-|-12-10-12------------0-----|
|------10-----------12----|---------------------0-----|
|----9-------11-----------|-12-11-12---------0--------|
|-------------0-----------|------------------------2--|
|-------------------------|---------------------------|
|-8-----------------------|--0------------0-----------|

|----0-12-12-10-----------|-----10-------------------|
|-------------------12-10-|-12-----12----------------|
|------12----11-----------|--0--------------------9--|
|-------------0-----------|--------------------9-----|
|-------------------------|-----------------7--------|
|-8-----------------------|--------------7-----------|

The first time play these two bars...
|--------8--8-10---------|-------------------------||
|--------8-----------10--|-8-----8-----8-----8-----||
|-----9-------11---------|-9-----9-----9-----9-----||
|-10-----------0---------|----9-----9-----9-----0--||
|------------------------|-0-----------------------||
|------------------------|-------------------------||

...and the second time this
bar instead of them (slowing)
|---------8--8--10^-------||
|---------8-----12l-------||
|------9----------l-------||
|--10-----------12l-------||
|-------------------------||
|-------------------------||



End

|----------10--------|-12---10---12--------|
|-12-----------------|---------------------|
|--------------------|---------------------|
|--------------------|---------------------|
|--------------------|---------------------|
|--------------------|---------------------|

|---------------3-2-----0---|-----------------|----------------|
|-------------5-------------|-----------------|----------------|
|-----------4--------4------|------------9----|----------------|
|-------2/5-----------------|----------9------|----------------|
|----2----------------------|-----7-----------|----------------|
|-0-------------------------|---0-------------|----------------|





Comments


Popular X Japan tabs & chords
Alive 2 Bass Tabs
X Bass Tabs
Tears 1 Chords
Unfinished Chords
Forever Love Tabs
Jade Tabs
Without You Intro Tabs
Art Of Life Ukulele
Crucify My Love Ukulele
Unfinished Ukulele


Song lyrics



↑ Back to top | Tablatures and chords are parodies/interpretations of the original songs. You may use it for private study, scholarship, research or language learning purposes only
© 2014 AZChords.com Contact us | Privacy policy | DMCA | Add/correct tabs | Request tabs | Top 50 tabs