» » »

Say It Aint So Tabs (ver.3)

Artists:  A B C D E F G H I J K L M N O P Q R S T U V W X Y Z # 

Say It Aint So Tabs (ver.3)

Weezer
Rating:
0/5 (0 votes)

Hard to play? Try these video lessons and learn fast.
                PROPS GO TO: Adam

"Say it Ain't So" -Weezer 

LEGEND: 
/  : slide up 
\  : slide down 
h  : hammer-on 
p  : pull-off 
b  : bend 
b&r: bend and release 
^  : rest 



Intro: 
E----------4-----------------------------------4--------------------|R| 
B----------5-----0----------0------------1---x-5-------------9\-----|E| 
G----4h6---6-----5---------5-------------2---x-4-------------9\-----|P| 
D----4h6---6-----6--------6------6/7-7---2---x-6-------------9\-----|E|  
A----4h4---------6-------6-------6/7-7-------x-7-------9h11---------|A| 
E----------------4---4-----------4/5-5--------------0---------------|T| 

Background:
E-----4-----4-----4-----4-----5-----4-----4-----4-------------|R| 
B--^--5--^--4--^--4--^--4--^--5--^--5--^--5--^--5-------------|E| 
G--^--6--^--5--^--5--^--5--^--6--^--4--^--4--^--4-------------|P| 
D--^-----^-----^-----^-----^-----^-----^-----^----------------|E| 
A-------------------------------------------------------------|A| 
E-------------------------------------------------------------|T| 

1st Solo: 
E----------------------------------7----7------------------------|-| 
B---------------------------9------7h9--7---10-----------9-------|E| 
G----------------9---9------9----------------9h11p9------9---9---|N| 
D----------9-----9---9h11------11--------------------11------9---|D| 
A----9h11----11--------------------------------------------------|-| 
E----------------------------------------------------------------|-| 

CHORUS: 
E-------------------------------------------------------------|-| 
B---------5-------------5-------------------------------------|E| 
G---6-6---7b&rb---------7b&rb------2-2---^--------------------|N| 
D---6-6-----------6-6--------------2-2---^---2----------------|D| 
A---4-4-----------6-6--------------0-0---^---2----------------|-| 
E-----------------4-4------------------------0----------------|-| 

2nd Solo: 
E-------------11-----9----------------------------------------------------------
B----------12----12-----9---12------9-----7-------------------------------------
G----8h11-----------------------11-----9------9b&r---8/9------------------------
D-------------------------------------------------------11---11/13----9---11----
A-----------------------------------------------------------------------------11
E-------------------------------------------------------------------------------

Background
E-------------------------------------------------------------|R| 
B-------------------------------------------------------------|E| 
G---4-4---^-4---4-4---^-4---------^------------^--------------|P| 
D---4-4---^-4---4-4---^-4---2-2---^--2---5-5---^--5-----------|E| 
A---2-2---^-2---x-x---^-x---2-2---^--2---5-5---^--5-----------|A| 
E---------------6-6-----6---0-0------0---3-3------3-----------|T| 



Last Solo: 
E---14b&r--12--11------11-----------------------------14b&r--12--11------------ 
B------------------14------14--14b&r--12-----------------------------14-------- 
G-----------------------------------------13~---------------------------------- 
D------------------------------------------------------------------------------ 
A-------------------------------------------------------------------------------
E-------------------------------------------------------------------------------

E--11-------------------------------------------------12--16--14h16p14--12--11--
B------14--14b&r--14--12--14b~--14b-----------12--14----------------------------
G-------------------------------------------------------------------------------
D-------------------------------------------------------------------------------
A-------------------------------------------------------------------------------
E------------------------------------------------------------------------------- 

E----------12--16--14--12--11----------12--16--14--12--11--16b&r--14--16------ 
B--12--14----------------------12--14-------------------------------------17
G----------------------------------------------------------------------------- 
D-----------------------------------------------------------------------------
A----------------------------------------------------------------------------- 
E----------------------------------------------------------------------------- 


Lyrics:
Oh Yeah, all right
Somebody's Heine', is crowdin' my icebox
Somebody's cold one, is givin' me chills
Guess I'll just close my eyes
Oh yeah all right feels good inside

Flip on the tele', Wrestle with Jimmy
Something is bubbling, Behind my back
The bottle is ready to blow

*Chorus-Say it ain't so, Your drug is a heartbreaker
Say it ain't so, My love is a lifetaker

I can't confront you, I never could do
That which might hurt you, So try and be cool
When I say
This way is a waterslide away from me that takes you further every day
So be cool

*Chorus

Dear Daddy,
I write you in spite of years of silence. 
You've cleaned up, found Jesus, things are good or so I hear.
This bottle of Steven's awakens ancient feelings.
Like father, stepfather, the son is drowning in the flood.

*Chorus
            
Hard to play? Try these video lessons and learn fast. | Correct




comments powered by Disqus
↑ Back to top | Tablatures and chords are parodies/interpretations of the original songs. You may use it for private study, scholarship, research or language learning purposes only