» » »

Weezer, Say It Aint So Bass tabs (ver.1)

Artists:  A B C D E F G H I J K L M N O P Q R S T U V W X Y Z # 

Say It Aint So Bass tabs (ver.1)

Weezer Tabs
 Rating:
4/5 (4 votes)
Say It Aint So lessons Tabs too difficult? Try these video lessons and learn fast
                Weezer – Say It Ain’t So.


(Tune half a step down)


Come In After 6 Seconds And Play This

Intro (00:06)
Gb---------------------|
Db-----4-5-6-----------|
Ab-4-----------------2-|
Eb---4-------5-0-0-4---|

main riff    x 10 (dont play last 4 notes 7th time)

Chorus 1 (01:16)
Gb-----------------------|
Db-----------------------|
Ab-4-4-----------------2-|
Eb------4-4--5-5-0-0-4---|
 (Play 4 Times)

Gb---------------------|
Db-----4-5-6-----------|
Ab-4-----------------2-|
Eb---4-------5-0-0-4---|

main riff    x 6  (dont play last 3 notes 2nd time)

Chorus 2 (02:19)
Gb-----------------------|
Db-----------------------|
Ab-4-4-----------------2-|
Eb------4-4--5-5-0-0-4---|
 (Play 4 Times)

The “Dear Daddy” Part (02:44)
Gb-------------------------|
Db-------------------------|
Ab-2-2-2-1-1-1-------------|
Eb-------------0-0-0-3-3-3-|
(Play 4 Times)


Guitar Solo (03:09)
Gb------------------------|
Db------------------------|
Ab-4-4------0-0-------2---|
Eb------4-4------0-0-4----|
 (Play 4 Times)

End (03:35)
Gb-----------------------|
Db-----------------------|
Ab-4-4-----------------2-|
Eb------4-4--5-5-0-0-4---|
 (Play 4 Times)

I got annoyed at all the wrong tabs that there are for this... so i hope this one is 
it's not perfect though...
            
Submit corrections

comments powered by Disqus
↑ Back to top | Weezer Bass for Say It Aint So. Lyrics for acoustic guitar and electric guitar. Tablatures and chords are parodies/interpretations of the original songs. You may use it for private study, scholarship, research or language learning purposes only