>
 >
Say It Ain't So 2

Say It Ain't So 2 Guitar Tabs

Weezer - Say It Ain't So 2 chords, tabs, tablatures, lyrics

Guitar lessons | Add/correct | Request | Top 50 tabs Artists:  A B C D E F G H I J K L M N O P Q R S T U V W X Y Z 0-9

Say It Ain't So 2 Guitar Tabs – Weezer

CD, Sheet music, Poster

Do you like Say It Ain't So 2? Share with your friends now
Tabs
Ok, this is a simpler version, for the
people like me who suck at the tricky 
kind of chords that weezer uses.
Anyways, enjoy, and please rate.

This tab isnt 100% note for note, but
it sounds pretty decent.  Also, I know
Weezer has 2 guitarist, and this transcription
is for one guitar, not everyone has 2 guitarist
but you can still play this song for a band.
One more thing, i know the correct tuning for
the song is Eb and not standard, but
standard sounds good to me.  

Tuning EADGBe

Intro/Verse
e|-------------------------------0----|
B|--4h6---------------0----------0----|
G|--4h6-6-----------5--------6---1----|
D|--4h6-6--6------6-----6/7--7---2----|
A|--4---4--6----6-------6/7------2----|
E|---------4--4---------4/5------0----|

Verse:
e|----4----4---4---5--|
B|----4----4---4---4--|
G|----4----4---4---4--| Repeat many times
D|--------------------|
A|--------------------|
E|--------------------|

Verse Fill 1:
e|----------------------------------------------|
B|-------------------9-------------10h12---10---|
G|--------9---9------9-------------11h13---11---|
D|--------9---9h11----------11------------------|
A|---11-----------------------------------------|
E|----------------------------------------------|

Verse Fill 2:
e|----------------------------------|
B|---10--------------9--------------|
G|----9h11h9---------9----9---------|
D|-----------11-----------9---------|
A|----------------------------------|
E|----------------------------------|

Chorus 1: Distortion on
e|---------------------------------------------|
B|---------------------------------------------|
G|---6--6--------------------------------------|
D|---6--6----6--6----7--7-----2-------2--2--2--|
A|---4--4----6--6----7--7-----2-------2--2--2--|
E|-----------4--4----5--5-----0-------0--0--0--|

Verse Fill 3:
e|--9----7---------------------------|
B|----9----7h9-----7-----------------|
G|---------------9---7--9/\(9)-8/9---|
D|---------------------------------11|
A|-----------------------------------|
E|-----------------------------------|

Verse Variation (clean)
e|-----------------------------------------|
B|-----------------------------------------|
G|--------6--------------------------------|
D|--------6-----6--------7------2----------|
A|--------4-----6--------7------2----------|
E|--------------4--------5------0----------|

Chorus 2:    FULL BENDS ^
e|----------------------------------------------------------|
B|-------------7^----------7^-------------------------------|
G|-------6--6--5^----------5^-------------------------------|
D|-------6--6-------6--6--------7--7-------2-------2--2--2--|
A|-------4--4-------6--6--------7--7-------2-------2--2--2--|
E|------------------4--4--------5--5-------0-------0--0--0--|

Fill after chorus:
E|---------------------------------------------------------------------|
B|---------------------------------------------------------------------|
G|-----6----6----6----6------------------------------------------------|
D|-----6----6----6----6----6----6----6----6----7----7----7----2--------|
A|-----4----4----4----4----6----6----6----6----7----7----7----2--------|
E|-------------------------4----4----4----4----5----5----5----0--------|

Bridge:
e|------------------------------------------------------------------|
B|-----------------------------------------------------------------*|
G|------------------------------------------------------------------|	
D|--9----9-------9----8----8-------8---2--2-------2---5--5-------5--|
A|--9----9-------9----8----8-------8---2--2-------2---5--5-------5-*|
E|--7----7-------7----6----6-------6---0--0-------0---3--3-------3--|

e|------------------------------------|--------------------|--------0-----0--0--0--|
B|------------------------------------|--------------------|--------0-----0--0--0--|
G|------------------------------------|--6-----------------|--------1-----1--1--1--|
D|--2--2-------2-----5-5-5-5-5-5-5-5--|--6----6-----6---6--|--7-----2-----2--2--2--|
A|--2--2-------2-----5-5-5-5-5-5-5-5--|--4----6-----6---6--|--7-----2-----2--2--2--|
E|--0--0-------0-----3-3-3-3-3-3-3-3--|-------4-----4---4--|--5-----0-----0--0--0--|

Guitar Solo:
e|-----------------------------------------------------------------------|
B|-----19^(19)--17---16vvvvvvv------16-----------------------------------|
G|-------------------------------18------18--18^(18)--16-----------------|
D|------------------------------------------------------------18vvvvvvv--|
A|-----------------------------------------------------------------------|
E|-----------------------------------------------------------------------|

e|----------------------------------------------------------------------------|
B|--19^(19)--17--16vvvvvvv------16--------------------------------------------|
G|---------------------------18------18--------18^(18)-----16--18/vvv--18/----|
D|----------------------------------------------------------------------------|
A|----------------------------------------------------------------------------|
E|----------------------------------------------------------------------------|

e|-------------16------------------16^(16)--------------|
B|---------17------19p17--16vvvvv------------19---17~~--|
G|--16-18-----------------------------------------------|
D|------------------------------------------------------|
A|------------------------------------------------------|
E|------------------------------------------------------|

Then Chorus 2
Then intro/Verse


Thats about it, dont be to harsh, not everyone has 2 guitarist
in their band remember!  Just trying to help out those who
would like to play this for their band and have one guitarist.
Anyways, I did the solo and alot of the song by ear.  So hopefully
its not to bad.  Anyways, Have fun!





Comments


Popular Weezer tabs & chords
Automatic Bass Tabs
Possibilties Bass Tabs
I Dont Want To Let You Go Chords
The Angel And The One 1 Chords
Knock Down Drag Out 1 Tabs
The Good Life 2 Tabs
The Greatest Man That Ever Lived 1 Tabs
The World Has Turned And Left Me Here 1 Tabs
We Are All On Drugs 2 Tabs
Hash Pipe Ukulele


Song lyrics



↑ Back to top | Tablatures and chords are parodies/interpretations of the original songs. You may use it for private study, scholarship, research or language learning purposes only
© 2014 AZChords.com Contact us | Privacy policy | DMCA | Add/correct tabs | Request tabs | Top 50 tabs