» » »

Weezer, Buddy Holly Bass tabs (ver.2)

Artists:  A B C D E F G H I J K L M N O P Q R S T U V W X Y Z # 

Buddy Holly Bass tabs (ver.2)

Weezer Tabs
Rating:
5/5 (2 votes)
Buddy Holly lessons Tabs too difficult? Try these video lessons and learn fast
                #------------------------------------------------------------------------------##
Weezer - Buddy Holly

dropped D tuning Db, Ab, Db, Gb,


1st,2nd verses

|---------------------------|-------------------------|-----------------
|---------------------------|-------------------------|-----------------
|------------4-----------4--|-----------4-------------|----------7------
|---4--4--4-----4--4--4-----|--4--4--4-----4--4--6--6-|-7--7--7-----7---
                                                                        
                                                                        
-----------|----------------------|-------------------------|-----------
-----------|----------------------|-------------------------|-----------
--------7--|----------7-----------|----------4-----------4--|-----------
--7--7-----|-7--7--7-----7--7--7--|-4--4--4-----4--4--4-----|-4--4--4---
                                                                        

                                            Play fill 2nd time        
----------------|-------------------------|----------------------------|
----------------|-------------------------|----------------------------|
-4--------------|-----------7-----------7-|-------------------4--4-----|
----4--4--6--6--|--7--7--7-----7--7--7----|-7--7--7--7--9--9-----------|
                                                                        
                                                                        
fill
|----------------------------|
|---4--4--4------------------|
|------------4---------------|
|---------------4--4--6--6---|
                                                                        

Pre-Chorus                                                                  
|--------------------------|------------------------|-------------------
|--------------------------|------------------------|-------------------
|--5--5--5--5--5--5--5--5--|-4--4--4----------------|-5--5--5--5--5--5--
|--------------------------|----------4--4--4--4--4-|-------------------
                                                                        
                                                                        
-------|------------------------|------------------------|--------------
-------|------------------------|------------------------|--------------
--5--5-|-4--4--4----------------|-5--5--5--5--5--5--5--5/|12--12--12--12
-------|----------4--4--4--4--4-|------------------------|--------------
                                                                        

                  Chorus                                                
-----------------|-------------------------|---------------------------|
-----------------|-------------------------|---------------------------|
--12--12--12--12-|-------------------------|---------------------------|
-----------------|--7--7--7--7--7--7--7--7-|-2--4--4--4--2--2--2--2----|
                                                                        
                                                                        
|------------------------|------------------------|---------------------
|------------------------|------------------------|---------------------
|------------------------|------------------------|---------------------
|-7--7--7--7--7--7--7--7-|-2--4--4--4--2--2--2--2-|-4--4--4--4--4--4--4-
                                                                        
                                                                        
-----|------------------------|------------------------|----------------
-----|------------------------|------------------------|----------------
-----|------------------------|------------------------|----------------
--4--|-0--0--2--2--7--7--7--7-|-7--7--0--0--2--2--2--2-|/7--7--7--2--2/-


----------------|
----------------|
----------------|
--7--7--7--7--7-|
                                                                        
 
Interlude                                                              
|------------------------|------------------------|---------------------
|------------------------|-4--4--4-----4----------|---------------------
|----------4-----------4-|----------4-------------|----------7----------
|-4--4--4-----4--4--4----|----------------4--6--6-|-7--7--7-----7--7--7-
                                                                        
                                                                        
----|---------------------------|
----|---------------------------|
--7-|----------7-----7--7-------|
----|-7--7--7-----7--------7--7-|
                                                                        
                                                    Bridge              
|------------------------|-----------------------|---------------------|
|------------------------|-----------------------|---------------------|
|------------------------|-----------------------|---------------------|
|-7--7--0--0--2--2--2--2-|-7--7--7--2/7--7--7--7-|-7--7--7--2--4--2--4-|
                                                                        
                                                                        
|---------------------|------------------------|-----------------------|
|---------------------|------------------------|-----------------------|
|----0--2--4--2--0----|------------------------|----0--2--4--2--0------|
|-4-----------------4-|-7--7--7--7--2--4--2--4-|-4-----------------4---|
                                                                        
                                                                        
|------------------------|----------------------|-----------------------
|------------------------|----------------------|-----------------------
|------------------------|----0--2--4--2--0-----|-----------------------
|-7--7--7--7--2--4--2--4-|-4-----------------4--|-7--7--7--7--7--2--4---
                                                                        
                                                                        
-------|---------------------|
-------|---------------------|
-------|----0--2--4--2--0----|
-2--4--|-4-----------------4-|
                                                                        
                                                                        
Guitar Solo
|------------------------|------------------------|---------------------
|------------------------|------------------------|---------------------
|-5--5--5--5--5--5--5--5-|-4--4--4----------------|-5--5--5--5--5--5--5-
|------------------------|----------4--4--4--4--4-|---------------------
                                                                        
                                                                        
-----|------------------------|------------------------|----------------
-----|------------------------|------------------------|----------------
--5--|-4--4--4----------------|-5--5--5--5--5--5--5--5-|-5--5--5--5--5--
-----|----------4--4--4--4--4-|------------------------|----------------


----------|------------------------|-----------------------------------|
----------|------------------------|-----------------------------------|
--5--5--5-|-5--5--5--5--5--5--5--5-|-----------------------------------|
----------|------------------------|-----------------------------------|
                                                                        
                                                                        
Out-Chorus
|-------------------------|-------------------------|
|-------------------------|-------------------------|
|-------------------------|-------------------------|
|--4--4--4--4--4--4--4--4-|-0--0--2--2--7--7--7--7--|
                                                                        
                      play 3x                                           
||--------------------------|------------------------------||
||o-------------------------|-----------------------------o||
||o-------------------------|-----------------------------o||
||---7--7--0--0--2--2--2--2-|-/7--7--7--2--2/7--7--7--7--7-||
                                                                        
                                                                        
|------------------------|--------------------------|
|------------------------|--------------------------|
|------------------------|--------------------------|
|-7--7--0--0--2--2--2--2-|-/7--7--7--7--2--4--2--4--|
                                                                        
                                                                        
=======================================================================
h = hammeron                    Judy Letostak                         
t = tap (right hand)            The Music Shop BBS (619)423-4970 24hrs
~ = vibrato                     * = picked harmonic
bf = bend full                  tr = trill
rb = release bend               p.s. = pick scr*pe
dive = dive with bar            b = bend / step written over note
========================================================================
            
Submit corrections

comments powered by Disqus
↑ Back to top | Weezer Bass for Buddy Holly. Lyrics for acoustic guitar and electric guitar. Tablatures and chords are parodies/interpretations of the original songs. You may use it for private study, scholarship, research or language learning purposes only