» » »

Weezer, Buddy Holly Tabs (ver.3)

Artists:  A B C D E F G H I J K L M N O P Q R S T U V W X Y Z # 

Buddy Holly Tabs (ver.3)

Weezer Tabs
 Rating:
4/5 (12 votes)
Buddy Holly lessons Tabs too difficult? Try these video lessons and learn fast
                tune: 1/2 step down
Guitars(EADGBE) play with distortion
Bass(EADG) 
 
Guitar 1: verse and fill in               
E----------------------------------            E--------------------- 
B----------------------------------            B--2h3p2h3p2---------- 
G----------------------------------            G--------------------- 
D-4-4-4-4-4--------/6-6-7-7-7-7----            D--------------------- 
A-4-4-4-4-4--------/6-6-7-7-7-7----            A--------------------- 
E-2-2-2-2-2--------/4-4-5-5-5-5----            E--------------------- 

Guitar 2: verse 
E---------------------------------------------------------------------
B---------------------------------------------------------------------
G---------------------------------------------------------------------
D-7-7-7-7-7-------/9-10-10-10-10-10-----------------------------------
A-7-7-7-7-7-------/9-10-10-10-10-10-----------------------------------
E-5-5-5-5-5-------/7-7--8--8--8--8------------------------------------

Bass: verse
G---------------------------------------------------------------------
D---------------------------------------------------------------------
A---------------------------------------------------------------------
E-5-5-5-5-5------/7-7-8-8-8-8-----------------------------------------
                                
Guitar 1: pre chorus 
E---------------------------------------------------------------------
B----10--10--10--10----9----------------10--10--10--10--10--10--10--10
G-11--11--11--11----9---9-11--11--11-11--11--11--11--10--10--10--10---
D----------------------------11--11-----------------------------------
A---------------------------------------------------------------------
E---------------------------------------------------------------------

Guitar 2: pre chorus 
E---------------------------------------------------------------------
B---------------------------------------------------------------------
G-7-7-7-7-----6-6-6-6-----------------7-7-7-7-------------------------
D-7-7-7-7-----6-6-6-6-----4-4-4-4-----7-7-7-7-------------------------
A-5-5-5-5-----4-4-4-4-----4-4-4-4-----5-5-5-5-------------------------
E-------------------------2-2-2-2-------------------------------------

Bass: pre chorus
G---------------------------------------------------------------------
D---------------------------------------------------------------------
A-5-5-5-5-----4-4-4-4-----------------5-5-5-5-------------------------
E-------------------------2-2-2-2------------------------------------- 
Both Guitars: chorus 
E---------------------------------------------------------------------
B---------------------------------------------------------------------
G------------7-7-7-7--------------------------------------------------
D-7-7-7-7----7-7-7-7-----2-2-2-2--------------------------------------
A-7-7-7-7----5-5-5-5-----2-2-2-2--------------------------------------
E-5-5-5-5----------------0-0-0-0-------------------------------------- 
E---------------------------------------------------------------------
B---------------------------------------------------------------------
G------------7-7-7-7--------------------------------------------------
D-7-7-7-7----7-7-7-7-----2-2-2-2--------------------------------------
A-7-7-7-7----5-5-5-5-----2-2-2-2--------------------------------------
E-5-5-5-5----------------0-0-0-0--------------------------------------

E---------------------------------------------------------------------
B---------------------------------------------------------------------
G--------------7-7-7-7------------------------------------------------
D-4-4-4-4------7-7-7-7-----2-2-2-2-----7-7-7-7------------------------
A-4-4-4-4------5-5-5-5-----2-2-2-2-----7-7-7-7------------------------
E-2-2-2-2------------------0-0-0-0-----5-5-5-5------------------------
 
E---------------------------------------------------------------------
B---------------------------------------------------------------------
G------------7-7-7-7--------------------------------------------------
D-7-7-7-7----7-7-7-7----2-2-2-2---7-7-7-7---2-2-2-2---7-7-7-7---------
A-7-7-7-7----5-5-5-5----2-2-2-2---7-7-7-7---2-2-2-2---7-7-7-7---------
E-5-5-5-5---------------0-0-0-0---5-5-5-5---0-0-0-0---5-5-5-5--------- 
Bass: Chorus
G---------------------------------------------------------------------
D---------------------------------------------------------------------
A----------5-5-5-5--------------------5-5-5-5-------------------------
E-5-5-5-5-----------0-0-0-0--2-2-2-2-----------0-0-0-0--------5-5-5-5- 
G---------------------------------------------------------------------
D---------------------------------------------------------------------
A----------5-5-5-5----------------------------------------------------
E-5-5-5-5-----------0-0-0-0--5-5-5-5--0-0-0-0--5-5-5-5----------------  
Guitar 1: fill 2 
 
E---------16-14-----------------------16-14-------------------------- 
B-14-15-14-----14-----14--14--14-15-14-----14------------------------ 
G----------------16-14-----------------------16-14------------------- 
D-------------------------------------------------------------------- 
A-------------------------------------------------------------------- 
E-------------------------------------------------------------------- 

Both Guitars: Bridge
E-------------------------------------------------------------------- 
B-------------------------------------------------------------------- 
G-2-2-----------xx------2-4-6-4-2------------------------------------ 
D-2-2--2-4---4--xx----4-2-4-6-4-2-4---------------------------------- 
A-0-0--2-4---4--xx----4-0-2-4-2-0-4---------------------------------- 
E------0-2-0-2--------2-----------2---------------------------------- 
 
Bass: Bridge
G--------------------------------------------------------------------
D--------------------------------------------------------------------
A-0-0------------------0-2-4-2-0-------------------------------------
E------0-2-0-2-------2-----------2-----------------------------------

Guitar 1:solo (play with whammy peadal)
E-16-14-12-9/10-5.--14-14--/16-16--/17-17--/19-/19-19-17-17---------- 
B--x--x--x-x-x--x.---x--x----x--x----x--x----x---x--x--x--x----------
G-13-11--9-6/7--2.--11-11--/13-13--/14-14--/16-/16-16-14-14---------- 
D--------------------------------------------------------------------
A-------------------------------------------------------------------- 
E-------------------------------------------------------------------- 
 
E--------------------------------------------------------------------
B-----------------------------------14b16r14------------------14----- 
G------14------16b18r16-14--------14-------------14-----------14h16--
D-14h16--16p14---------------14h16--16p14----------------14h16------- 
A---------------------------------------------------14h16------------
E-------------------------------------------------------------------- 
  
Guitar 1: fill 3 
E-17--17-19-19b21r19-17---------------------------------------------- 
B---18-----------------18-17----------------------------------------- 
G-------------------------------------------------------------------- 
D-------------------------------------------------------------------- 
A-------------------------------------------------------------------- 
E-------------------------------------------------------------------- 
   
Both guitars: outro
E-------------------------------------------------------------------- 
B-------------------------------------------------------------------- 
G-------------------------------------------------------------------- 
D-7-7-7-----4---4---------------------------------------------------- 
A-7-7-7-----4---4---------------------------------------------------- 
E-5-5-5-0-0-2-0-2----------------------------------------------------

Bass: outro 
G--------------------------------------------------------------------
D--------------------------------------------------------------------
A--------------------------------------------------------------------
E-5-5-5-0-0-2-0-2----------------------------------------------------
            
Submit corrections

comments powered by Disqus
↑ Back to top | Weezer Tabs for Buddy Holly. Lyrics for acoustic guitar and electric guitar. Tablatures and chords are parodies/interpretations of the original songs. You may use it for private study, scholarship, research or language learning purposes only