» » »

Weezer, Buddy Holly Bass tabs (ver.1)

Artists:  A B C D E F G H I J K L M N O P Q R S T U V W X Y Z # 

Buddy Holly Bass tabs (ver.1)

Weezer Tabs
Rating:
3/5 (10 votes)
Buddy Holly lessons Tabs too difficult? Try these video lessons and learn fast
                
Tuning: Half-Step Down (Eb,Ab,Db,Gb)


Main Riff
G|---------------------------------------------------|
D|---------------------------------------------------|
A|---------------------------------------------------|
E|-222-0-222-0-222-0-22-44-555-0-555-0-555-0-5-0-5-0-|

G|-------------------------------------------------|
D|-------------------------------------------------|
A|-------------------------------------------22-44-|
E|-222-0-222-0-222-0-22-44-555-0-555-0-555-0-------|

Pre-Chorus
G|--------------------------------|
D|--------------------------------|
A|-5-5-5-5-5-5-5-5-4-4-4----------| x2
E|-----------------------2--2-2-0-|

G|---------------------------------------|
D|---------------------------------------|
A|-5-5-5-5-5-5---------------------------|
E|-------------5/17-17-17-17-17-17-17-17-|

Chorus
G|---------------------------------|
D|---------------------------------|
A|-----------------5-5-5-5-7-7-7-7-| x2
E|-5-5-5-5-5-5-5-5-----------------|

G|---------------------------------|
D|---------------------------------|
A|-----------------5-5-7-7-0-0-0-0-|
E|-2-2-2-2-2-2-2-2-----------------|

G|----------------------------------|
D|----------------------------------|
A|-0-0-5-5-7-7-7-7-0-0-0----0-0-0-0-|
E|-----------------------00---------|

Bridge
G|---------------------------------|
D|---------------------------------|
A|-0-0-0---------------0-2-4-2-0---| x4
E|-------0-2-0-2-x-x-0-----------0-|

G|--------------------------------|
D|--------------------------------|
A|-5-5-5-5-5-5-5-5-4-4-4----------| x2
E|-----------------------2--2-2-0-|

G|-----------------|
D|-----------------|
A|-5-5-5-5-5-5-5-5-| x3
E|-----------------|

*Rest for the amazing guitar fill*

Ending
G|--------------------------------|
D|--------------------------------|
A|-0-0-5-5-7-7-7-7-0-0-00---------|
E|------------------------0-2-0-2-|


Song Structure:
- Main Riff
- Pre-Chorus
- Chorus
- Main Riff (with synth extension)
- Pre-Chorus
- Chorus (play last part twice)
- Bridge
- Chorus (stay on last measure till ending)
- Ending

----****----
--Comments--
----****----
Can't believe there wasn't already a decent
tab for this song...  Enjoy.
            

comments powered by Disqus
↑ Back to top | Weezer Bass for Buddy Holly. Lyrics for acoustic guitar and electric guitar. Tablatures and chords are parodies/interpretations of the original songs. You may use it for private study, scholarship, research or language learning purposes only