» » »

Ween, Transdermal Celebration Tabs (ver.2)

Artists:  A B C D E F G H I J K L M N O P Q R S T U V W X Y Z # 

Transdermal Celebration Tabs (ver.2)

Ween Tabs
 Rating:
4/5 (4 votes)
Transdermal Celebration lessons Tabs too difficult? Try these video lessons and learn fast
                This is my first tab.. and its the best i can do... so if you guys have corrections.. im 
you do.. change them please!


/=slide up
\=slide down
o   \
o   /REPEAT

[Intro]
e:----0-0--0--0-----------------------------0-------|
B:----2/4--2--0--0------0--0--0--0-0--0--0--0-------|
G:-o-------------2------1--2--1--2/4--2--1--1----o--|
D:-o----------------------------------------2----o--|
A:------------------------------------------2-------|
E:------------------------------------------0-------|

Rest of song...
     B
Transdermal celebration
A
Caused a slight mutation
       E
In the rift
   B
It toppled down a nation
     A                              E
And left the people running for the hills
        B
But the mutants that I see
            A
Shine their beauty unto me
           E
I wish you could see them

E, Eb, Db, B, A
    B
Tectonic tribulation
A                         E
Formed a crust of green beyond the reef
B
Waves fell in formation
A                                    E
Cause the plants to bend with spi-ked leaves
B
I'm growing with the land
A                                  E
Time has taken my hands and let me touch them
E, Eb, Db, B, A
Eb   E
Hey, hey,
Eb        E     Eb Db   E
A billion miles to Mark A
Eb          E    Eb    E
Lay on the lawn, he's already home
Eb   Db  E                    B
When the morning ray hits his face

[Play intro without repeating.. then go into the solo... this is the best i could do.. 
have to figure out the rest of that part.. sorry guys]

e:-----------------------------4-4-----|
B:-4-4-4-5-4-2-----4-4-4-5-4-2-0-------|
G:--------------------------2-1--------|
D:-------------------------------------|
A:-------------------------------------|
E:-------------------------------------|

e:-------------------------------------------------16----14-12-14-11-|
B:-16-16-16-17-16-14-----16-16-16-17-16-14-12------------------------|
G:-------------------------------------------14-13-------------------|
D:-------------------------------------------------------------------|
A:-------------------------------------------------------------------|
E:-------------------------------------------------------------------|

     B
Transdermal celebration
A
Jets flew in formation
        E
I could see them
B
Dropping the crustaceans
A                                 E
Leaving trails of flames in their wake
     B
But where is the mutation
         A                            E
Who once told me it was safe, I can't find him
E, Eb, Db, B, A
E    Eb
Hey, hey,
E         Eb    Eb Db   E
A billion miles to Mark A
E          Eb         E       Eb
Lay on the lawn, he's already home
Eb    Db E                    B
When the morning ray hits his face

[Play intro one last time slowly without repeating.. and that's it
hope this was helpful]
-Blatt
            
Submit corrections

comments powered by Disqus
↑ Back to top | Ween Tabs for Transdermal Celebration. Lyrics for acoustic guitar and electric guitar. Tablatures and chords are parodies/interpretations of the original songs. You may use it for private study, scholarship, research or language learning purposes only