» » »

Warpaint, Undertow Tabs (ver.1)

Artists:  A B C D E F G H I J K L M N O P Q R S T U V W X Y Z # 

Undertow Tabs (ver.1)

Warpaint Tabs
Rating:
3/5 (4 votes)
Undertow lessons Tabs too difficult? Try these video lessons and learn fast
                -------------------------------------------------------------------------------
-------------------------------------------------------------------------------

Tuning: Standard

Update 13/10/10 - Kiedisette's corrected the Main Riff, which I was one note out on.


This is a pretty awesome song and quite simple to play. I recommend putting the reverb 
and playing with a slight bit of overdrive to catch those harsher strums.

Main Riff/Verse Riff

e|--------------------------------------------------------------------------|
B|--------------------------------------------------------------------------|
G|---11--11----11------4--4------4-4---2-2---2---4--4---4-4-----------------|
D|----0---0-----0------2--2------2-2---0-0---0---2--2---2-2-----------------|
A|--------------------------------------------------------------------------|
E|--------------------------------------------------------------------------|

This double stop riff is plucked with the finger and thumb. Sometimes they change it up, 
the bass take over, but it centres around this piece.


'Why you wanna blame me for your troubles?' and other points

e|----------------------------------------------------------2--2--2--2------|
B|-----------------------12-12-12------0--0--0--0--0--0--x--0--0--0--0------|
G|--11-11-11-11-11-11--x-11-11-11------4--4--4--4--4--4--x--4--4--4--4------|
D|---9--9--9--9--9--9--x--9--9--9------2--2--2--2--2--2--x--2--2--2--2------|
A|--------------------------------------------------------------------------|
E|--------------------------------------------------------------------------|
     d  u  d  d  d  u  u  d  u  u      d  u  d  d  d  u  d  d  u  u  d

This above riff progresses from the finger plucking, and moves onto a strum. Play around 
the main riff and it should sound great; little hammer ons and embellishments really 
it come alive. You don't have to use the ones I did but they sound fitting.

Bridge Riff

e|---9-------x---x----------------------------------------------------------|
B|---x------10---9----------------------------------------------------------|
G|--11------11---9----------------------------------------------------------|
D|---9------11---9----------------------------------------------------------|
A|---x-------9---7----------------------------------------------------------|
E|---x-------x---x----------------------------------------------------------|

These are the chords; the first is played for one bar, the others half a bar each. You 
be able to work out the strumming for yourself.


For the rest of the song just play around, Warpaint are a very jammy band, and I have no 
what key the song is after working out by ear but try stuff and see if it works; box 
and scales should sort you out.

************************************

| /   slide up
| \   slide down
| h   hammer-on
| p   pull-off
| ~   vibrato
| +   harmonic
| x   Mute note
| b   Bend
| pb  Pre-bend
| br  Bend release
| pbr Pre-bend release
| brb Bend release bend

************************************
            

comments powered by Disqus
↑ Back to top | Warpaint Tabs for Undertow. Lyrics for acoustic guitar and electric guitar. Tablatures and chords are parodies/interpretations of the original songs. You may use it for private study, scholarship, research or language learning purposes only