» » »

Warpaint, Set Your Arms Down Bass tabs (ver.1)

Artists:  A B C D E F G H I J K L M N O P Q R S T U V W X Y Z # 

Set Your Arms Down Bass tabs (ver.1)

Warpaint Tabs
 Rating:
4/5 (4 votes)
Set Your Arms Down lessons Tabs too difficult? Try these video lessons and learn fast
                




Intro

G||-10-----------------|-10----10h12--12----12-0-||
D||-12-----------------|-12----12-----10----10---||  x6
A||--------------------|-------------------------||
E||--------------------|-------------------------||


Verse

G||-10-----------------|-10----10h12--12----12-0-||
D||-12-----------------|-12----12-----10----10---||  x20
A||--------------------|-------------------------||
E||--------------------|-------------------------||


Chorus 

G||----------------------|-----------------------|
D||----------------------|-----------------------|
A||-13--------13---------|-13--------13-------13-|
E||----------------------|-----------------------|

G||---------------------------|---------------------------|
D||------------------------12-|---12--12-12-----12--12----|
A||---------------------------|---------------------------|
E||-10----10-10--10-10--10----|--------------10--------10-|

G||----------------------|-----------------------|
D||----------------------|--------------------12-|
A||-13--------13---------|-13--------13----------|
E||----------------------|-----------------------|

G||---------------------------|---------------------------|
D||------------------------12-|---12--12-12-----12--12----|
A||---------------------------|---------------------------|
E||-10----10-10--10-10--10----|--------------10--------10-|

---

G||----------------------|----------------------|
D||----------------------|----------------------|
A||-13--------13---------|-13--------13---------|
E||----------------------|----------------------|

G||--------------------|--------------------|
D||--------------------|--------------------|
A||-5------------------|---5--5-5--5-5--5-5-|
E||--------------------|--------------------|

G||----------------------|----------------------|
D||----------------------|----------------------|
A||-13--------13---------|-13--------13---------|
E||----------------------|----------------------|

G||--------------------|--------------------||
D||--------------------|--------------------||
A||-5------------------|---5--5-5--5-5--5-5-||
E||--------------------|--------------------||

---

G||-10-----------------|-10----10h12--12----12-0-||
D||-12-----------------|-12----12-----10----10---||  x6
A||--------------------|-------------------------||
E||--------------------|-------------------------||


Outro

G||--------------------|--------------------||
D||--------------------|--------------------|| Until the End
A||-3/5--5-5--8-5--5-8-|-5-5--8-5--5\3--3-3-||
E||--------------------|--------------------||
            
Submit corrections

comments powered by Disqus
↑ Back to top | Warpaint Bass for Set Your Arms Down. Lyrics for acoustic guitar and electric guitar. Tablatures and chords are parodies/interpretations of the original songs. You may use it for private study, scholarship, research or language learning purposes only