>
 >
Baby

Baby Guitar Tabs

Warpaint - Baby chords, tabs, tablatures, lyrics

Guitar lessons | Add/correct | Request | Top 50 tabs Artists:  A B C D E F G H I J K L M N O P Q R S T U V W X Y Z 0-9

Baby Guitar Tabs – Warpaint

CD, Sheet music, Poster

Do you like Baby? Share with your friends now
ChordsTabsUkulele
-----------------------------------------------------------------------------
-----------------------------------------------------------------------------

Tuning:standart

Don't you call anybody else, baby...
e|--------------------------------------------------------------------------|
B|--1---1-----------0------------1----------1-------------------------------|
G|---------0------------0------------2----------2---------------------------|
D|-----2----------0---0--------2---2------2---2-----------------------------|
A|--3-----3----------------0-----------0------------------------------------|
E|--------------3-----------------------------------------------------------|
Cuz I'm your baby still
It took a long time to make it
But I'll never change my mind
I'll never try to fake it
I'll never do a lie


Don't you call anybody else, baby...
e|---------------------------1----1-----------------------------------------|
B|--1---1-----------0-----------------3--------1----------------------------|
G|---------0------------0-------2------------------2------------------------|
D|-----2----------0---0------0------0--------2---2--------------------------|
A|--3-----3-------------------------------0---------------------------------|
E|--------------3-----------------------------------------------------------|
Cuz I'm your baby still
It took a long time to make it
But I'll never change my mind...

hmmmmmmm...
hmmmmmmm...
e|--1----1------------------------------------------------------------------|
B|-----------3-----------1-----1----1-------------0-------------------------|
G|-----2---------------2---2------------0-------------0---------------------|
D|--0------0---------2------------2-------------0---0-----------------------|
A|----------------0------------3------3-------------------------------------|
E|-------------------------------------------3------------------------------|

You speak your feels..
e|----------------------------------1---------------------------------------|
B|-------1-------------0----------------3--------1--------------------------|
G|-----------2-------------0------2------------------2----------------------|
D|-----2-------------0---0-----0------0--------2----------------------------|
A|--0------0--------------------------------0------0------------------------|
E|----------------3---------------------------------------------------------|

Thinking in circles and checking
What least I've seen
e|---------------------------1----1-----------------------------------------|
B|--1---1-----------0-----------------3--------1-----------0----------0-----|
G|---------0------------0-------2------------------2-----------0----------0-|
D|-----2----------0---0------0------0--------2---2-------0---0------0---0---|
A|--3-----3-------------------------------0---------------------------------|
E|--------------3-------------------------------------3----------3----------|

You leave your life
Like a page from the book of my fantasy...
e|--1----1------------------------------------------------------------------|
B|-----------3-----------1-----1----1-------------0-------------------------|
G|-----2---------------2---2------------0-------------0---------------------|
D|--0------0---------2------------2-------------0---0-----------------------|
A|----------------0------------3------3-------------------------------------|
E|-------------------------------------------3------------------------------|

e|--------------------------------------------------------------------------|
B|--------------------------------------------------------------------------|
G|--2----2--------------------0----0-------2----2---------------------------|
D|-----------2---3----3---3------------0------------2-----------------------|
A|--0--0---0-------------------------------0--0---0-------------------------|
E|---------------1--1---1-----3--3---3--------------------------------------|





Comments


Popular Warpaint tabs & chords
Bees Bass Tabs
Beetles Bass Tabs
Elephants Bass Tabs
Krimson 2 Bass Tabs
Warpaint 1 Bass Tabs
Beetles Tabs
Elephants Tabs
Set Your Arms Down 1 Tabs
Ashes To Ashes Ukulele
Shadows Ukulele


Song lyrics



↑ Back to top | Tablatures and chords are parodies/interpretations of the original songs. You may use it for private study, scholarship, research or language learning purposes only
© 2014 AZChords.com Contact us | Privacy policy | DMCA | Add/correct tabs | Request tabs | Top 50 tabs