» » »

Victor Wooten, Overjoyed Bass tabs (ver.3)

Artists:  A B C D E F G H I J K L M N O P Q R S T U V W X Y Z # 

Overjoyed Bass tabs (ver.3)

Victor Wooten Tabs
 Rating:
4/5 (4 votes)
Overjoyed lessons Tabs too difficult? Try these video lessons and learn fast
                This is basically the same as the other tab but i've tabbed out a bit more and i've added in some notes i think the other tab left out.  Victor is finger tapping this song, so i'll leave it up to you to figure out which hand to use on which notes.

G--------16-----------16-----------16-----------16--12-14-16-
D------14--14--14---14--14--14---14--14--14---14--14---------
A----12------12---11------11---10------10---11---------------
E--10------------9------------8------------9-----------------

G--------16-----------16-----------16---13-20--21--
D------14--14--14---14--14--14---14--14-12---21----
A----12------12---11------11---10------------------
E--10------------9------------8---------7----------

G------14----20--21--14-20--21--14-21-20-------14--14--14--12--
D----12--------21--12-----21--12--------21---12--12--12--12--14
A--10------------10---------10-------------10------------------
E-8--------8---------------------------------------------------
            
Submit corrections

comments powered by Disqus
↑ Back to top | Victor Wooten Bass for Overjoyed. Lyrics for acoustic guitar and electric guitar. Tablatures and chords are parodies/interpretations of the original songs. You may use it for private study, scholarship, research or language learning purposes only