» » »

Victa Bass tabs (ver.1)

Artists:  A B C D E F G H I J K L M N O P Q R S T U V W X Y Z # 

Victa Bass tabs (ver.1)

Victor Wooten
Rating:
0/5 (0 votes)

Hard to play? Try these video lessons and learn fast.
                I'm not too sure about the intro bit...but it 
think its pretty close,don't be 
intimidated, Its easer than it looks

Into1
G------------------------------|
D-7p5-----8--------------------|
A-----8p5---7p6p5--------------|
E----------------7p6p5---------|
B------------------------7--5--|

Intro2/verse/chorus
G-----------------------------------------------------------------------|
D------------3h5-3-------------3h5------------3h5--------------7p5------|
A-------------------------------------------------5----------------8p5--|
E-----1-3-5-------------1-3-5-----------1-3-5------------1-3-5---------8|
B-3-----------------6--------------5-----------------4------------------|

Pre-Chorus
G------------------------------------------------------------|
D--------------5h7-5------------------------------------5h7-5|
A--------------------5h8-5-----------------------------------|
E-3---1-1--1h3-------------7-5--3---1-1--1h3--1h3-3----------|
B---3-----------------------------3-----------------1-3------|

Chorus

Verse

Pre-Chorus

Chorus

Solo(im not exactly sure but its close)
G-------------------------------------------------|
D--------------15h17-18h-19|17p-14----------------|
A--------15h17---------------------15p13----------|
E--15h17---------------------------------15p13----|
B-------------------------------------------------|

G-15-17p14-17p15-17p14-15-----------------------------------|
D-------------------------17p14-17p15-17p14-----------------|
A-------------------------------------------5-3-------------|
E-------------------------------------------------5p3-------|
B--------------------------------------------------------3--|

G------------------------------------------------------------|
D---------------------------------------------7p5------------|
A-----3-5-7------3-5-7-----7p5-----5h7p5h7p5------8p5--------|
E-3-3-------7----------7p5-----7p5--------------------7p5----|
B----------------------------------------------------------3-|

Chorus(regular)

Chorus(new ending)
G--------------------------------------------------------------|
D------------3h5-3-------------3h5------------3h5--------------|
A-------------------------------------------------5------------|
E-----1-3-5-------------1-3-5-----------1-3-5------------1-3-5-|
B-3-----------------6--------------5-----------------4---------|

G-----------------------------------|
D-5h7p5-------5h7p5-----------------|
A-------5h8p5-------5h8p5-----------|
E-------------------------7p6p5-----|
B--------------------------------3--|
            
Hard to play? Try these video lessons and learn fast. | Correct




comments powered by Disqus
↑ Back to top | Tablatures and chords are parodies/interpretations of the original songs. You may use it for private study, scholarship, research or language learning purposes only