» » »

Overjoyed Bass tabs (ver.2)

Artists:  A B C D E F G H I J K L M N O P Q R S T U V W X Y Z # 

Overjoyed Bass tabs (ver.2)

Victor Wooten
Rating:
0/5 (0 votes)

Hard to play? Try these video lessons and learn fast.
                Victor Wooten
Overjoyed

This is just the beginning part of the song.  Please let me know if you find any mistakes.  I will update the tab as I get more written...

Enjoy!

B




     s  s  s  e   s  s  s  s s  s e   s  s  s   
G||-----------16------------------16-----------|
D||--------14-----14----14------14----14----14-|
A||-----12-----------12------11----------11----|
E||--10--------------------9-------------------|


     s s  s  e   s  s  s  s s  s  s  s s  s  s  
G||----------16-------------------16-R-12-14-16-|
D||-------14-----14----14------14---------------|
A||----10-----------10------11------------------|
E||--8--------------------9---------------------|


     s  s  s  e   s  s  s  s s  s  e   s  s  s   
G||-----------16-------------------16-----------|
D||--------14-----14----14------14-----14----14-|
A||-----12-----------12------11-----------11----|
E||--10--------------------9--------------------|


     s s  s  s  s  s  q.      e   s  s     h.               
G||----------16-12-R--14------20--16-21-|-(21)-----||
D||-------14----------13----------------|----------||
A||----10-------------------------------|----------||
E||--8----------------7-----------------|----------||
            
Hard to play? Try these video lessons and learn fast. | Correct




comments powered by Disqus
↑ Back to top | Tablatures and chords are parodies/interpretations of the original songs. You may use it for private study, scholarship, research or language learning purposes only