» » »

Victor Wooten, Overjoyed Bass tabs (ver.1)

Artists:  A B C D E F G H I J K L M N O P Q R S T U V W X Y Z # 

Overjoyed Bass tabs (ver.1)

Victor Wooten Tabs
 Rating:
4/5 (5 votes)
Overjoyed lessons Tabs too difficult? Try these video lessons and learn fast
1
                g|-------16------------16-----------16-----|
d|-----14------14----14------14---14-----14|
a|---12------12----11------11---10-----10--|
e|-10------10-----9-------9----8------8----|

g|-------16-----------16----------16-----16-12-12/14|
d|-----14------14---14-----14---14-----14-----------|
a|---12------12---11-----11---10-----10-------------|
e|-10------10----9------9----8------8-----------8/7-|

g|-20--21----11/13--20--20------/20--21-20-21-20--|
d|---21-----9---------21-----11----21-----------21|
a|---------7---------------11---------------------|
e|------------------------9-----------------------|

g|----11--11-13-11----------------------16-----|
d|--11------------11-14-11------16-16/18--18-16|
a|-9----9-------------------------------------7|
e|---------------------------------------------|

g|-21-20------11/13---21-20-----11---21-20--------18|
d|------21---9-------------21-11----------21-18-14--|
a|----------7----------------9----------------------|
e|--------------------------------------------------|

g|-------18-20-17----------17-17-20-18-16-15|
d|---4---------------6/8-6------------------|
a|--4---------------6-----------------------|
e|-2---------------8--------0~~~~~~~~~~~~~/2|

g|-16--18--20|
d|---16--16--|
a|-----------|
e|--7---7---7|

g|-11/13-11--11--11h12p11-9---9---13-11-9-11-9-8-9-11----13-10-|
d|----------11---------------9---------------------------------|
a|---------7----7------7---------7--7~~~-------------10-5-----9|
e|--------5----5-----4----------4------------------------------|

g|-18-20-21-20-18-16----------20--21--------------------21|
d|------------------------------21-------------14--16-18--|
a|--7-----------------------------------------14----------|
e|------------------------------------12-14-16------------|


This tab is all tapping. For the most part all the left hand tapping is on E string and 
string, and all the right hand tapping is on the D string and the G string. It sounds 
nice if you get it down. Have fun, it will take some practice.
            
Submit corrections

comments powered by Disqus
↑ Back to top | Victor Wooten Bass for Overjoyed. Lyrics for acoustic guitar and electric guitar. 1 Tablatures and chords are parodies/interpretations of the original songs. You may use it for private study, scholarship, research or language learning purposes only