» » »

Victor Wooten, Amazing Grace Bass tabs (ver.1)

Artists:  A B C D E F G H I J K L M N O P Q R S T U V W X Y Z # 

Amazing Grace Bass tabs (ver.1)

Victor Wooten Tabs
 Rating:
2.6/5 (11 votes)
Amazing Grace lessons Tabs too difficult? Try these video lessons and learn fast
                
beg:
  **  ****  **  **    ****  ****  ****     **   **
G--5--4-54---2------|---55--4-54---543------5----7-|
D-5----3----3----5--|-55-----3----5--------5----7--| hold it
A-------------3-3---|-----------------5-5/7--7/9---| Milk it lol
E---3-----3-------3-|-----3-----3------------------|
  
  **  ****         ** ** **        **     ****   *
G-43--4-54----------5--5------------5-----4-54-----|
D------3-----------3--5---5--------5-------3-----3-| Again milk it
A------------0h1/2^^-2---3-----------567^6^^^5^4^^-| and count yourself in
E---3-----3-3--------------3-3/567-----------------| for next part
                                           ^
                                      kind of tough

Bridge: (harmonic on top two notes of chords kinda tough, need good thumb on back of   
         bridge)

G-555-x5--------555-x5-----4^^|-555-x5--------555-x5---7^^|
D-555-x5-555-x5-555-x5-555-4^^|-555-x5-555-x5-555-x5-557^^|
A-333-x3-555-x5-333-x3-555-2^^|-333-x3-555-x5-333-x3-555^^|
E--------333-x3--------333----|--------333-x3--------33---|

Jazzy part: (tip bass and harmonic don't mix till end so stop harmonics)
            (Also harmonic notes go fast
  ****     ****       ****      ****
G---55-----4-54----------5----------------|
D-55--------3---------333----------5------|
A--------------22-022-----33-33-333-------|
E------333--------------------------33-33-|

  ******    ****       *****         
G-----55----4-54---------543------5------5-|
D--5-5-------3---------55---------5------5-| for the two chords top two are harmonics
A-5-5-----------------------55555-7-997543-|
E-------333-----33-033---------------------|

  ***     ****         ***      ****
G-543-----4-54-------0---5--------------------|
D----------3--------0--33----------5----------| There a part in there more complicated
A--------------0h1/2-------33-33333-----------| it contains harmonic slide, i cant do it
E-----333-----3----------------------3333/5/7-| if u can plz tell me how :)

  **       ****   *
G--5-------4-54^^^---|
D-5---------3-----3^^| i guesse end all the rest is just improve to tell u the truth
A--------------5-4---|
E---00-000-----------|

Ending: (i usualy use it its good right after the last part)
   *** *** ***
G---5---5---5^^^|-2.5-3-4-5--------------|
D--5-5-5-5-5-5^^|-----------4-5----------|
A-3-------------|---------------4^^^^^^^^| then sharpen this note holding all of them
E-----7---5-----|-----------------10^/3^^|
                                  right hand

 thar u go... if u aint familiar here is a little legend

Legend:
* harmonic
/ slide
h hammer on
^ hold it
x hit the string with right hand (picing hand)
            
Submit corrections

comments powered by Disqus
↑ Back to top | Victor Wooten Bass for Amazing Grace. Lyrics for acoustic guitar and electric guitar. Tablatures and chords are parodies/interpretations of the original songs. You may use it for private study, scholarship, research or language learning purposes only