» » »

Verve Pipe, The Freshmen Tabs (ver.3)

Artists:  A B C D E F G H I J K L M N O P Q R S T U V W X Y Z # 

The Freshmen Tabs (ver.3)

Verve Pipe Tabs
 Rating:
3.7/5 (6 votes)
The Freshmen lessons Tabs too difficult? Try these video lessons and learn fast
1
                
this is my first tab so here goes

standard tuning(EADGBe)

intro part1:  (clean)
e|-------------------------5--------------------------------|
B|----------7------------------------5-------------2--------|
G|------9-------9----------------6-------------2------------|
D|----9---9---9--------7-------6---6---------2---2----------|
A|--7----------------7---7---4----------2--0----------------|
E|-----------------5----------------------------------------|


pre verse: repeat intro part1 with guitar two w/ distortion
e|----------------------------------------------------------|
B|--------10-9-------------------5--------------------------|
G|--9---9--------------------6-6----6-----------------------|
D|--9-9----------------------6------------------------------|
A|--7------------------------4------------------------------|
E|----------------------------------------------------------|

verse 1:
e|---------------------------5------------------------------|
B|----------7----------------------------5-------------2----|
G|------9-------9--------------------6-------------2--------|
D|----9---9---9---9------7---------6---6---------2---2------|
A|--7------------------7---7-----4----------2--0------------|
E|-------------------5--------------------------------------|
     "When i was young i 	   "She a punk who rarely
	knew everything"	     ever took advice."

e|---------------------------5------------------------------|
B|----------7----------------------------5-------------2----|
G|------9-------9--------------------6-------------2--------|
D|----9---9---9---9------7---------6---6---------2---2------|
A|--7------------------7---7-----4----------2--0------------|
E|-------------------5--------------------------------------|
      "Now im guilt stricken	    "Stop a babys breath
	sobbing with my head on	      and a shoe full of
	the floor"			rice."


pre chorus:
e-----------------------------------------------------------|
B----------------------------2----------------------------2-|
G------6--------4-------2-----------------6-------4------2--|
D----6---6----4---4---2---2-------------6---6---4---4---2---|
A--4--------2-------0-----------------4-------2-------0-----|
E-----------------------------------------------------------|
"Cant be held responsible             "She was touching		her face"

e------------------------------------------------------------|
B----------------------------2-----------------------------2-|
G------6--------4-------2-----------------6-------4-------2--|
D----6---6----4---4---2---2-------------6---6---4---4---2----|
A--4--------2-------0-----------------4-------2-------0------|
E------------------------------------------------------------|
"wont be held                     "She fell in love
   responsible"			in the first place"


chorus:
e|---------------------------5------------------------------|
B|----------7----------------------------5-------------2----|
G|------9-------9--------------------6-------------2--------|
D|----9---9---9---9------7---------6---6---------2---2------|
A|--7------------------7---7-----4----------2--0------------|
E|-------------------5--------------------------------------|
      "for the life of me i cannot remember what made us
	think that we were wise and we'd never compromise"


e|---------------------------5------------------------------|
B|----------7----------------------------5-------------2----|
G|------9-------9--------------------6-------------2--------|
D|----9---9---9---9------7---------6---6---------2---2------|
A|--7------------------7---7-----4----------2--0------------|
E|-------------------5--------------------------------------|
       "for the life of me i cannot believe we'd ever die
	for these sins we were merely freshmen"


pre verse


verse2:
e|---------------------------5------------------------------|
B|----------7----------------------------5-------------2----|
G|------9-------9--------------------6-------------2--------|
D|----9---9---9---9------7---------6---6---------2---2------|
A|--7------------------7---7-----4----------2--0------------|
E|-------------------5--------------------------------------|
     "My best friend took a	   "His girl took a weeks
       weeks vacation to     worth of valium and slept"
	forget her"

e|---------------------------5------------------------------|
B|----------7----------------------------5-------------2----|
G|------9-------9--------------------6-------------2--------|
D|----9---9---9---9------7---------6---6---------2---2------|
A|--7------------------7---7-----4----------2--0------------|
E|-------------------5--------------------------------------|
      " and Now hes guilt 	    "Thinks about now and
	stricken sobbing with     how he never really wept
	 his head on the floor"	     he said"


repeat pre chorus with guitar 2 playing this
e|-------------------------------------------------------|
B|---5-4-5---5-4-5---3--5b7b5-4-5------------------------|
G|-------------------------------------------------------|
D|-------------------------------------------------------|
A|-------------------------------------------------------|
E|-------------------------------------------------------|

chorus with guitar one playing normal chorus and with guitar 2 playing these power chords.
e|---------------------------5------------------------------|
B|----------------------------------------------------------|
G|--9----------6----4---2-----------------------------------|
D|--9----7-----6----4---2-----------------------------------|
A|--7----7-----4----2---0-----------------------------------|
E|-------5--------------------------------------------------|

then go to this:
e|-----------------------------------------------------------|
B|--5-4-5----5-4-5-------5-4-5b7b5-4-5----guitar 2-----------|
G|---2---------6-----------9--------------guitar 1-----------|
D|---2---------6-----------9---------------------------------|
A|---0---------4-----------7---------------------------------|
E|-----------------------------------------------------------|
	"Hey ya....."

verse 3:
e|---------------------------5------------------------------|
B|----------7----------------------------5-------------2----|
G|------9-------9--------------------6-------------2--------|
D|----9---9---9---9------7---------6---6---------2---2------|
A|--7------------------7---7-----4----------2--0------------|
E|-------------------5--------------------------------------|
     "we've tried to wash our       we never talk of our
     hands of all of this"           lacking relationships"

e|---------------------------5------------------------------|
B|----------7----------------------------5-------------2----|
G|------9-------9--------------------6-------------2--------|
D|----9---9---9---9------7---------6---6---------2---2------|
A|--7------------------7---7-----4----------2--0------------|
E|-------------------5--------------------------------------|
      "and how guilt stricken	   we fell through the ice
       sobbing with our heads       when we tried not to
       on the floor"                slip we'd say"


repeat pre chorus and chorus

repeat intro part 2 twice

and there you go
            
Submit corrections

comments powered by Disqus
↑ Back to top | Verve Pipe Tabs for The Freshmen. Lyrics for acoustic guitar and electric guitar. 1 Tablatures and chords are parodies/interpretations of the original songs. You may use it for private study, scholarship, research or language learning purposes only