» » »

The Freshmen Bass tabs (ver.2)

Artists:  A B C D E F G H I J K L M N O P Q R S T U V W X Y Z # 

The Freshmen Bass tabs (ver.2)

Verve Pipe
Rating:
5/5 (3 votes)

Hard to play? Try these video lessons and learn fast.
                #------------------------------------------------------------------------------##
#




THIS IS THE BTAB FOR THE VERVE PIPE'S SONG "FRESHMAN" ON THEIR 
THIRD ALBUM "VILLIANS", WORDS AND MUSIC WRITTEN BY THE VERVE PIPE.
                       

                       VERSE AND CHORUS 
G -----------------------------------------------------------------|
D -----------------------------------------------------------------|
A -----7-7-7------------------4-4-4-----------------------------|
E --------------7--5-5-5-5------------7--5-5-5-5--------------|


                           
G -----------------------------------------------------------------|
D -11-11-11-11----9-9-9-9----7-7-7-7-7-7-7-7-------------|
A -----------------------------------------------------------------|
E -----------------------------------------------------------------|


                              
G -9----9----9----9--------8---8---8---8--------6---6---6---6----|
D -11--11---11---11------9---9---9---9--------7---7---7---7----|
A ---------------------------------------------------------------------|
E ---------------------------------------------------------------------|



THAT'S IT! ITS REALLY SIMPLE.  YOUR GONNA HAVE TO FIND OUT HOW
            
Hard to play? Try these video lessons and learn fast. | Correct




comments powered by Disqus
↑ Back to top | Tablatures and chords are parodies/interpretations of the original songs. You may use it for private study, scholarship, research or language learning purposes only