» » »

Verve Pipe, The Freshmen Tabs (ver.1)

Artists:  A B C D E F G H I J K L M N O P Q R S T U V W X Y Z # 

The Freshmen Tabs (ver.1)

Verve Pipe Tabs
Rating:
4/5 (4 votes)
The Freshmen lessons Tabs too difficult? Try these video lessons and learn fast
                The Verve Pipe – The Freshmen


video of me playing/singing it:

Tuning: E  A  D  G  B  E (standard)(capo 2nd fret)

x = mute
^ = hammer on or pull off

Verse 1, 2 and 3:
---------0-------------3---------------------------|
-----3-------3-----3-------------3---------------0-|
---2---2---2-----0---0-------4-----4---------0-----|
-0-------------------------4---4-------0---0---0---|
-------------------------2-----------0-------------|
---------------3-------------------------3---------|

-------3^2---------------3---------------------------|
-----3-----3---3-----3-------------3---------------0-|
---2---------2-----0---0-------4-----4---------0-----|
-0---------------------------4---4-------0---0---0---|
---------------------------2-----------0-------------|
-----------------3-------------------------3---------|

Pre-Chorus 1, 2 and 3: (Play 4x)
---------------------------|
-------------------------0-|
-----4-------2-------0-----|
---4---4---2---0---0---0---|
-2-------0-----------------|
-----------------3---------|

Chorus 1 & 2:
---------0-------------3---------------------------------|
-----3-------3-----3-------3-----------3---------------0-|
---2---2---2-----0---0---0---0-----4-----4---------0-----|
-0-------------------------------4---4-------0---0---0---|
-------------------------------2-----------0-------------|
---------------3-------------------------------3---------|

-------3^2---------------3---------------------------------|
-----3-----3---3-----3-------3-----------3---------------0-|
---2---------2-----0---0---0---0-----4-----4---------0-----|
-0---------------------------------4---4-------0---0---0---|
---------------------------------2-----------0-------------|
-----------------3-------------------------------3---------|

Turnaround:
---------0-------------3---------------------------|
-----3-------3-----3-------------3---------------0-|
---2---2---2-----0---0-------4-----4---------0-----|
-0-------------------------4---4-------0---0---0---|
-------------------------2-----------0-------------|
---------------3-------------------------3---------|

Bridge:
-------------------------------------------------3^2-0---0^2-|
-----2-3-----3-------3-----3-------2-3-----3-----------3-----|
---2-------2---2---2-----2-------2-------2---2---------------|
-----------------0-----------------------------0-------------|
-----------------------0-----------------------------0-------|
-2-------3-------------------3-2-------3---------------------|

-----------------------------------------------------0---3^2---|
-----2-3-----3-------3-----3-------2-3-----3-------3-3-------3-|
---2-------2---2---2-----2-------2-------2---2---2---2---------|
-----------------0-----------------------------0-----2---------|
-----------------------0-----------------------------0---------|
-2-------3-------------------3-2-------3-----------------------|

Chorus 3 and 4:
-0--0^2-2---3---2---0---3-|
-3--3---3---3---3---3---3-|
-2--2---2---0---4---2---0-|
-0--0---0---0---4---2---0-| (Play 3x)
-0--0---0---x---2---0---x-|
------------3-----------3-|

-0--0^2-2---3-------2----0-----5-|
-3--3---3---3------3----3-----3--|
-2--2---2---0-----4----2-----0---|
-0--0---0---0----4----2-----0----|
-0--0---0---x---2----0-----x-----|
------------3-------------3------|

Outro:
-------0---------------3---------------------------|
-----3---3---3-----3-------------3---------------0-|
---2-------2-----0---0-------4-----4---------0-----|
-0-------------------------4---4-------0---0---0---|
-------------------------2-----------0-------------|
---------------3-------------------------3---------|

-------3^2---------------3---------------------------|
-----3-----3---3-----3-------------3---------------0-|
---2---------2-----0---0-------4-----4---------0-----|
-0---------------------------4---4-------0---0---0---|
---------------------------2-----------0-------------|
-----------------3-------------------------3---------|
            

comments powered by Disqus
↑ Back to top | Verve Pipe Tabs for The Freshmen. Lyrics for acoustic guitar and electric guitar. Tablatures and chords are parodies/interpretations of the original songs. You may use it for private study, scholarship, research or language learning purposes only