» » »

The Freshman Tabs (ver.2)

Artists:  A B C D E F G H I J K L M N O P Q R S T U V W X Y Z # 

The Freshman Tabs (ver.2)

Verve Pipe
Rating:
4/5 (10 votes)

Hard to play? Try these video lessons and learn fast.
                Standard Tuning
Capo on 2nd Fret
Everything is relative to the capo!
There are actually three guitars in this song but I just made if for two since the parts 
just doubling up anyway.

The timing isn't shown, but you can figure it out yourself...it's not that hard...

[Intro: Guitar I] [x2]

e|----------0---------|--------------3-|--------------------|--------------|
B|------3----------3--|------0---------|-----------3--------|-----------0--|
G|----2---2-----2-----|---0-----0------|------4----------4--|------0-------|
D|--0-----------------|----------------|----4---4-----4-----|----0---0-----|
A|--------------------|----------------|--2-----------------|--------------|
E|--------------------|-3--------------|--------------------|--3-----------|

[Intro: Guitar II] [play along with Guitar I on the second time]

e|----------------|----------------|----------------|----------------|
B|----------------|----------------|----------------|----------------|
G|---------7--9---|----------------|----------7--6--|----------------|
D|---7--9---------|----------------|----7--9--------|----------------|
A|----------------|----------------|----------------|----------------|
E|----------------|----------------|----------------|----------------|

[Verse One: Guitar I] [x2]

e|---------0----------|--------------3-|--------------------|--------------|
B|-----3---------3----|------0---------|-----------3--------|-----------0--|
G|---2---2----2----2--|---0-----0------|------4---------4---|------0-------|
D|-0------------------|----------------|----4---4-----4---4-|----0---0-----|
A|--------------------|----------------|--2-----------------|--------------|
E|--------------------|-3--------------|--------------------|--3-----------|

[Pre-Chorus: Guitar I] [x4]

e|-----------------|----------------|
B|-----------------|----------0-----|
G|-----4-------2---|-----0----------|
D|---4---4---2---2-|---0---0--------|
A|-2-------0-------|----------------|
E|-----------------|-3--------------|

[Chorus: Guitar I & II]

e|---------0----------|-----------3---------|--------------------|-------------------|
B|-----3---------3----|------0---------0----|-----------3--------|-----------0-------|
G|---2---2----2----2--|---0-----0----0---0--|------4---------4---|------0--------0---|
D|-0------------------|---------------------|----4---4-----4---4-|----0---0----0---0-|
A|--------------------|---------------------|--2-----------------|-------------------|
E|--------------------|-3-------------------|--------------------|--3----------------|

e|---------0----------|-----------3---------|--------------------|-------------------|
B|-----3---------3----|------0---------0----|-----------3--------|-----------0-------|
G|---2---2----2----2--|---0-----0----0---0--|------4---------4---|------0------------|
D|-0------------------|---------------------|----4---4-----4---4-|----0---0----------|
A|--------------------|---------------------|--2-----------------|-------------------|
E|--------------------|-3-------------------|--------------------|--3----------------|

[Post-Chorus: Guitar I]

e|----------0---------|------------3-------|--------------------|-------------------|
B|------3---------3---|------0---------0---|-----------3--------|-----------0-------|
G|----2---2-----2---2-|---0-----0----0---0-|------4---------4---|------0------------|
D|--0-----------------|--------------------|----4---4-----4---4-|----0---0----------|
A|--------------------|--------------------|--2-----------------|-------------------|
E|--------------------|-3------------------|--------------------|--3----------------|

[Post-Chorus: Guitar II]

e|----------------|----------------|----------------|----------------|
B|----------------|----------------|----------------|----------------|
G|---------7--9---|----------------|----------7--6--|----------------|
D|---7--9---------|----------------|----7--9--------|----------------|
A|----------------|----------------|----------------|----------------|
E|----------------|----------------|----------------|----------------|

[Verse: Guitar I] [x2]

e|----------0----------|--------------3--|--------------------|--------------|
B|------3---------3----|------0----------|-----------3--------|-----------0--|
G|----2---2----2----2--|---0-----0-------|------4---------4---|------0-------|
D|--0------------------|-----------------|----4---4-----4---4-|----0---0-----|
A|---------------------|-----------------|--2-----------------|--------------|
E|---------------------|-3---------------|--------------------|--3-----------|

[Pre-Chorus: Guitar I] [x4]

e|-----------------|----------------|
B|-----------------|----------0-----|
G|-----4-------2---|-----0----------|
D|---4---4---2---2-|---0---0--------|
A|-2-------0-------|----------------|
E|-----------------|-3--------------|

[Pre-Chorus Guitar II] [x2]

e|----------------|--------------------|----------------|--------------------|
B|----------------|--------------------|----------------|--------------------|
G|--7-6-7--7-6-7--|--7-6-7/9--7-6-7----|--7-6-7--7-6-7--|--7-6-7/9--7-6-7----|
D|----------------|--------------------|----------------|--------------------|
A|----------------|--------------------|----------------|--------------------|
E|----------------|--------------------|----------------|--------------------|

[Chorus: Guitar I & II]

e|---------0----------|-----------3---------|--------------------|-------------------|
B|-----3---------3----|------0---------0----|-----------3--------|-----------0-------|
G|---2---2----2----2--|---0-----0----0---0--|------4---------4---|------0--------0---|
D|-0------------------|---------------------|----4---4-----4---4-|----0---0----0---0-|
A|--------------------|---------------------|--2-----------------|-------------------|
E|--------------------|-3-------------------|--------------------|--3----------------|

e|---------0----------|-----------3---------|--------------------|-------------------|
B|-----3---------3----|------0---------0----|-----------3--------|-----------0-------|
G|---2---2----2----2--|---0-----0----0---0--|------4---------4---|------0------------|
D|-0------------------|---------------------|----4---4-----4---4-|----0---0----------|
A|--------------------|---------------------|--2-----------------|-------------------|
E|--------------------|-3-------------------|--------------------|--3----------------|

[Pre-Chorus: Guitar I] [x2]

e|-----------------|----------------|-----------------|------------------|
B|-----------------|----------0-----|-----------------|----------0-------|
G|-----4-------2---|-----0----------|-----4-------2---|-----0--------0---|
D|---4---4---2---2-|---0---0--------|---4---4---2---2-|---0---0----0---0-|
A|-2-------0-------|----------------|-2-------0-------|------------------|
E|-----------------|-3--------------|-----------------|-3----------------|

[Pre-Chorus Guitar II] [x2]

e|----------------|--------------------|----------------|--------------------|
B|----------------|--------------------|----------------|--------------------|
G|--7-6-7--7-6-7--|--7-6-7/9--7-6-7----|--7-6-7--7-6-7--|--7-6-7/9--7-6-7----|
D|----------------|--------------------|----------------|--------------------|
A|----------------|--------------------|----------------|--------------------|
E|----------------|--------------------|----------------|--------------------|

[Verse: Guitar I & II]

e|---------0----------|-----------3---------|--------------------|-------------------|
B|-----3---------3----|------0---------0----|-----------3--------|-----------0-------|
G|---2---2----2----2--|---0-----0----0---0--|------4---------4---|------0--------0---|
D|-0------------------|---------------------|----4---4-----4---4-|----0---0----0---0-|
A|--------------------|---------------------|--2-----------------|-------------------|
E|--------------------|-3-------------------|--------------------|--3----------------|

e|---------0----------|-----------3---------|--------------------|-------------------|
B|-----3---------3----|------0---------0----|-----------3--------|-----------0-------|
G|---2---2----2----2--|---0-----0----0---0--|------4---------4---|------0--------0---|
D|-0------------------|---------------------|----4---4-----4---4-|----0---0----0---0-|
A|--------------------|---------------------|--2-----------------|-------------------|
E|--------------------|-3-------------------|--------------------|--3----------------|

[Pre-Chorus: Guitar I] [x4]

e|-----------------|----------------|
B|-----------------|----------0-----|
G|-----4-------2---|-----0----------|
D|---4---4---2---2-|---0---0--------|
A|-2-------0-------|----------------|
E|-----------------|-3--------------|

[Pre-Chorus Guitar II] [x2]

e|----------------|--------------------|----------------|--------------------|
B|----------------|--------------------|----------------|--------------------|
G|--7-6-7--7-6-7--|--7-6-7/9--7-6-7----|--7-6-7--7-6-7--|--7-6-7/9--7-6-7----|
D|----------------|--------------------|----------------|--------------------|
A|----------------|--------------------|----------------|--------------------|
E|----------------|--------------------|----------------|--------------------|

[Chorus: Guitar I & II] [x4]

e|---------0----------|-----------3---------|--------------------|-------------------|
B|-----3---------3----|------0---------0----|-----------3--------|-----------0-------|
G|---2---2----2----2--|---0-----0----0---0--|------4---------4---|------0--------0---|
D|-0------------------|---------------------|----4---4-----4---4-|----0---0----0---0-|
A|--------------------|---------------------|--2-----------------|-------------------|
E|--------------------|-3-------------------|--------------------|--3----------------|

[Outro: Guitar I] [x2]

e|----------0---------|--------------3--|--------------------|--------------|
B|------3----------3--|------0----------|-----------3--------|-----------0--|
G|----2---2-----2-----|---0-----0-------|------4----------4--|------0-------|
D|--0-----------------|-----------------|----4---4-----4-----|----0---0-----|
A|--------------------|-----------------|--2-----------------|--------------|
E|--------------------|-3---------------|--------------------|--3-----------|

[Outro: Guitar II]

e|-----------------|----------------|----------------|----------------|
B|-----------------|----------------|----------------|----------------|
G|----------7--9---|----------------|----------7--6--|----------------|
D|----7--9---------|----------------|----7--9--------|----------------|
A|-----------------|----------------|----------------|----------------|
E|-----------------|----------------|----------------|----------------|

e|-----------------|----------------|----------------|----------------|
B|------------8--7-|----------------|----------------|----------------|
G|---------7-------|----------------|----------7--6--|----------------|
D|---7--9----------|----------------|----7--9--------|----------------|
A|-----------------|----------------|----------------|----------------|
E|-----------------|----------------|----------------|----------------|

[Lyrics:]

When I was young I knew everything 
She a punk who rarely ever took advice 
Now I'm guilt stricken, sobbing with my head on the floor 
Stopped a babies breath and a shoeful of rice, No 

Can't be held responsible 
Cause she was touching her face 
I won't be held responsible 
She fell in love in the first place 

For the life of me 
I can not remember 
What made us think that we were wise 
And we never compromise 
For the life of me 
I can not believe we'd ever die for these sins 
We were merely freshmen 

My best friend took a weeks vacation to forget her 
His girl took a weeks worth of Valium and slept 
And now he's guilt stricken sobbing with his head on the floor 
Thinks about her now and how he never really wept he says 

Can't be held responsible 
Cause she was touching her face 
I won't be held responsible 
She fell in love in the first place 

For the life of me 
I can not remember 
What made us think that we were wise and we never compromise 
For the life of me I can not believe 
We'd ever die for these sins 
We were merely Freshmen 

Hey Yah Eee Hah Eee Hah Eee Yah 
Hey Yaaah Hey Yah Eee Hah Eee Yah 

We tried to wash our hands of all of this 
We never talk of our lack in relationships 
And how we're guilt stricken sobbing 
With our heads on the floor 
We fell through the ice 
When we tried not to slip 
We'd say 

Can't be held responsible 
Cause she was touching her face 
And I won't be held responsible 
She fell in love in the first place 

For the life of me 
I can not remember 
What made us think that we were wise and we'd never compromise 

For the life of me 
I can not believe we'd ever die for these sins 
We were merely Freshmen 

For the life of me 
I can not remember what made us think that we were wise 
and we'd never compromise 
For the life of me 
I can not believe we'd ever die for these sins 
We were merely Freshmen 

We were merely Freshmen 
We were only Freshmen...
            
Hard to play? Try these video lessons and learn fast. | Correct




comments powered by Disqus
↑ Back to top | Tablatures and chords are parodies/interpretations of the original songs. You may use it for private study, scholarship, research or language learning purposes only