>
 >
Colorful

Colorful Guitar Tabs

Verve Pipe - Colorful chords, tabs, tablatures, lyrics

Guitar lessons | Add/correct | Request | Top 50 tabs Artists:  A B C D E F G H I J K L M N O P Q R S T U V W X Y Z 0-9

Colorful Guitar Tabs – Verve Pipe

CD, Sheet music, Poster

Do you like Colorful? Share with your friends now
ChordsChords v2Chords v3Chords v4TabsTabs v2Tabs v3Ukulele
Tuning: Standard



Intro/1st Verse (X6):
e|---------------------------------3----------2-------------|
B|--2--------------3---------------3----------3-------------|
G|--2--------------2---------------2----------2-------------|
D|--2--------------2---------------0----------0-------------|
A|--0--------------0----------------------------------------|
E|----------------------------------------------------------|
       The show is over, close the storybook 
                    They'll be no encore
       And all the random hands that I have shook, well they're
                    Reaching for the door

Pre-Chorus (X2):
e|--1------------------------------------3------------------|
B|--1------------------------------------3------------------|
G|--2------------------------------------0------------------|
D|--3------------------------------------0------------------|
A|--3------------------------------------2------------------|
E|--1------------------------------------3------------------|
       I watch their backs as they leave single file
       You stood stubborn, cheering all the while

Chorus 1 (X3):
e|---------------------------------0----------0-------------|
B|--2--------------2---------------3----------3-------------|
G|--2--------------2---------------2----------2-------------|
D|--2--------------2---------------0----------0-------------|
A|--0--------------0----------------------------------------|
E|----------------------------------------------------------|
       I know I can be             colorful
       I know I can be             grey
       And I know this loser's living fortunate
(x1)
e|--1-----------------------3-------------------------------|
B|--1-----------------------3-------------------------------|
G|--2-----------------------0-------------------------------|
D|--3-----------------------0-------------------------------|
A|--3-----------------------2-------------------------------|
E|--1-----------------------3-------------------------------|
     'Cause I know you will love me either way 

2nd Verse (X6):
e|---------------------------------3----------2-------------|
B|--2--------------3---------------3----------3-------------|
G|--2--------------2---------------2----------2-------------|
D|--2--------------2---------------0----------0-------------|
A|--0--------------0----------------------------------------|
E|----------------------------------------------------------|
      Most were being good for goodness sake, but you
      Wouldn't pantomime
      You are more beautifull when you're awake
      Than most are in a lifetime

Pre-Chorus (X2):
e|--1------------------------------------3------------------|
B|--1------------------------------------3------------------|
G|--2------------------------------------0------------------|
D|--3------------------------------------0------------------|
A|--3------------------------------------2------------------|
E|--1------------------------------------3------------------|
            Through the haze that is my memory, well
        You stayed for drama, though you paid for a comedy

Chorus 2 (X3):
e|---------------------------------0----------0-------------|
B|--2--------------2---------------3----------3-------------|
G|--2--------------2---------------2----------2-------------|
D|--2--------------2---------------0----------0-------------|
A|--0--------------0----------------------------------------|
E|----------------------------------------------------------|
       I know I can be             colorful
       I know I can be             grey
       And I know this loser's living fortunate
(x1)
e|--1-----------------------3-------------------------------|
B|--1-----------------------3-------------------------------|
G|--2-----------------------0-------------------------------|
D|--3-----------------------0-------------------------------|
A|--3-----------------------2-------------------------------|
E|--1-----------------------3-------------------------------|
      And I know you will love me either way 

Solo:
e|-----------------------7-----------------------------------|
B|---------10~~------------10~-------------------------------|
G|--/6-7-9--------/6-7-9---------6h7p6~-----7--6--4--6--2~---|
D|-----------------------------------------------------------|
A|-----------------------------------------------------------|
E|-----------------------------------------------------------|


e|-----------------------7----9h10p9--10--10/12---10~----|
B|---------10~~------------10----------------------------|
G|--/6-7-9--------/6-7-9---------------------------------|
D|-------------------------------------------------------|
A|-------------------------------------------------------|
E|-------------------------------------------------------|

Pre-Chorus (X1):
e|--1--------------------3-------------------------------|
B|--1--------------------3-------------------------------|
G|--2--------------------0-------------------------------|
D|--3--------------------0-------------------------------|
A|--3--------------------2-------------------------------|
E|--1--------------------3-------------------------------|
    Look ahead as far as you can see 

(X1):
e|-------------------------------------------------------|
B|-----------------------------------2-------------------|
G|--9--------------------------------2-------------------|
D|--9--------------------------------2-------------------|
A|--7--------------------------------0-------------------|
E|--0----------------------------------------------------|
      We'll live in drama, but we'll die in a comedy

Chorus 2 (X3):
e|-------------------------------------------------------|
B|-------------------------------------------------------|
G|--4------------------------------9---------------------|
D|--4------------------------------9---------------------|
A|--2------------------------------7---------------------|
E|---------------------------------0---------------------|
       I know I can be             colorful
       I know I can be             grey
       And I know this loser's living fortunate

(X1):
e|--------------------------------------------------------|
B|--------------------------------------------------------|
G|--------------------------------------------------------|
D|--5-----------------7-----------------------------------|
A|--5-----------------7-----------------------------------|
E|--3-----------------5-----------------------------------|
And I know you will love me either way

Chorus 2 (X3):
e|-------------------------------------------------------|
B|-------------------------------------------------------|
G|--4------------------------------9---------------------|
D|--4------------------------------9---------------------|
A|--2------------------------------7---------------------|
E|---------------------------------0---------------------|
       I know I can be             colorful
       I know I can be             grey
       And I know this loser's living fortunate

(X1):
e|--------------------------------------------------------|
B|--------------------------------------------------------|
G|--------------------------------------------------------|
D|--5-----------------4-----------------------------------|
A|--5-----------------4-----------------------------------|
E|--3-----------------2-----------------------------------|
And I know you will love me either way

(X1):
e|-------------------------------------------------------|
B|-----------------------------------2-------------------|
G|--9--------------------------------2-------------------|
D|--9--------------------------------2-------------------|
A|--7--------------------------------0-------------------|
E|--0----------------------------------------------------|
Cause I know you will              love me

X1):
e|--------------------------------------------------------|
B|--------------------------------------------------------|
G|--------------------------------------------------------|
D|--5-----------------4-----------------------------------|
A|--5-----------------4-----------------------------------|
E|--3-----------------2-----------------------------------|
And I know you will love me either way

(X1):
e|-------------------------------------------------------|
B|-------------------------------------------------------|
G|--4----------------------------------------------------|
D|--4----------------------------------------------------|
A|--2----------------------------------------------------|
E|-------------------------------------------------------|


CHORDS:
    A - x02220  or x577xx
    E - 022100  or 097700
    D - x00232  or x577xx
    F - 133211  
    G - 320033  or 355xxx





Comments


Popular Verve Pipe tabs & chords
Photograph 1 Bass Tabs
Villains 1 Bass Tabs
Colorful 2 Chords
Hero Chords
Never Let You Down Chords
Never Let You Down 1 Chords
Spoonful Of Sugar Chords
The Freshman Chords
Villians Chords
Colourful Ukulele


Song lyrics



↑ Back to top | Tablatures and chords are parodies/interpretations of the original songs. You may use it for private study, scholarship, research or language learning purposes only
© 2014 AZChords.com Contact us | Privacy policy | DMCA | Add/correct tabs | Request tabs | Top 50 tabs