» » »

Get Out The Door Tabs (ver.4)

Artists:  A B C D E F G H I J K L M N O P Q R S T U V W X Y Z # 

Get Out The Door Tabs (ver.4)

Velvet Revolver
Rating:
4/5 (1 vote)

Hard to play? Try these video lessons and learn fast.
                drop D tuning (if you dont have the new album libertad i suggest getting it its 
 song is up to the bridge i will find it out later.
   intro  x4              verse                         x2
e]-----------------------]--------------------------------2]----------------|
b]-----------------------]--------------------------------3]----------------|
g]-----------------------]--------------------------------2]----------------|
d]------7/9\7--------7-97]--------------------------------0]----------------|
a]-7-9--5/7\5--7-99--5-75]---7-99----4-66----7-99----4-66-0]----------------|
d]-7-9---------7-99------]---7-99----4-66----7-99----4-66-0]----------------|

pre-chorus   ive been down this road so long...............
e]-------------------------------------------------------]------------------|
b]-------------------------------------------------------]------------------|
g]-------------------------------------------------------]------------------|
d]-------7-99--------6-77--------7-99--------6-77--------]------------------|
a]-7-99--5-77--2-44--4-55--7-99--5-77--2-44--4-55--7-9///]------------------|
d]-7-99--------2-44--------7-99--------2-44--------7-9///]------------------|

chorus   get out the door get out the door............... x4
e]---------------------------------------------------------------------------|
b]---------------------------------------------------------------------------|
g]---------------------------------------------------------------------------|
d]------7/9\7-------7-97-----------------------------------------------------|
a]-7-9--5/7\5--7-99--5-75----------------------------------------------------|
d]-7-9---------7-99---------------------------------------------------------

bridge       x2  then play the verse and prechorus during talkbox solo                

e]---------------------------------2----------------------------------------
b]---------------------------------3----------------------------------------
g]---------------------------------2----------------------------------------
d]---------------------------------0----------------------------------------
a]-7-99-9-9-7-99-9-9-7-99-9-9-7-99-0----------------------------------------
d]-7-99-9-9-7-99-9-9-7-99-9-9-7-99-0----------------------------------------

outro chorus    x8
e]-----------2--------------------------------------------------------------
b]-----------3--------------------------------------------------------------
g]-----------2--------------------------------------------------------------
d]-----------0--------------------------------------------------------------
a]-7-9-7-9-9-0--------------------------------------------------------------
d]-7-9-7-9-9-0--------------------------------------------------------------
            
Hard to play? Try these video lessons and learn fast. | Correct




comments powered by Disqus
↑ Back to top | Tablatures and chords are parodies/interpretations of the original songs. You may use it for private study, scholarship, research or language learning purposes only