» » »

Get Out The Door Tabs (ver.2)

Artists:  A B C D E F G H I J K L M N O P Q R S T U V W X Y Z # 

Get Out The Door Tabs (ver.2)

Velvet Revolver
Rating:
3/5 (6 votes)

Hard to play? Try these video lessons and learn fast.
                (Intro)
-------------------------------------------------------------------------------
                          get out the door - velvet revolver
-------------------------------------------------------------------------------

Tuning:standred
             x4
e|------------------------------|---------------------------------------2--|
B|--------7\9/7---------7--9-7--|---------------------------------------3--|
G|--------7\9/7---------7--9-7--|---------------------------------------2--|
D|--5\7----------5\7-7----------|---------------------------------------0--|
A|--3\5----------3\5-5----------|---12-12/-----5-5/-----12-12/-----5-5/----|
E|------------------------------|-0-10-10/---0-3-3/---0-10-10/---0-3-3/----|




| /  slide up
| \  slide down
| h  hammer-on
| p  pull-off
| ~  vibrato
| +  harmonic
| x  Mute note
===============================================================================
            
Hard to play? Try these video lessons and learn fast. | Correct




comments powered by Disqus
↑ Back to top | Tablatures and chords are parodies/interpretations of the original songs. You may use it for private study, scholarship, research or language learning purposes only