» » »

Velvet Revolver, Get Out The Door Bass tabs (ver.1)

Artists:  A B C D E F G H I J K L M N O P Q R S T U V W X Y Z # 

Get Out The Door Bass tabs (ver.1)

Velvet Revolver Tabs
Rating:
4/5 (2 votes)
Get Out The Door lessons Tabs too difficult? Try these video lessons and learn fast
                G |----------------------------------------------------|
D |----------------------------------------------------|
A |-----------5/7\5-----------5-7-5--------------------|      x4
E |----5h7----------5-7-7------------------------------|

After main intro riff:

G|--------------------------------------------------------|
D|--------------------------------------------------------|
A|--------------------------------------------------------|      x2
E|-----5-7-7---2-4-4---5-7-7---2-4-4--0-------------------|

Leads to:

G|----------------------------------------------------------------------------------------------|
D|----------------------------------------------------------------------------------------------|
A|-----------------------------7-7----7-----------------------------------------7-7----7--------|
E|----7-7----7-10-10----10-----------10-10----10-7-7----7-10-10----10-----------10-10----10-7~--|

Main riff/chorus :

G |----------------------------------------------------|
D |----------------------------------------------------|
A |-----------5/7\5-----------5-7-5--------------------|      x4
E |----5h7----------5-7-7------------------------------|

Verse:

G|--------------------------------------------------------|
D|--------------------------------------------------------|
A|--------------------------------------------------------|      x3
E|-----5-7-7---2-4-4---5-7-7---2-4-4--0-------------------|

Leads to:

G|----------------------------------------------------------------------------------------------|
D|----------------------------------------------------------------------------------------------|
A|-----------------------------7-7----7-----------------------------------------7-7----7--------|
E|----7-7----7-10-10----10-----------10-10----10-7-7----7-10-10----10-----------10-10----10-7~--|


Main riff/chorus :

G |----------------------------------------------------|
D |----------------------------------------------------|
A |-----------5/7\5-----------5-7-5--------------------|      x4
E |----5h7----------5-7-7------------------------------|

Bridge:

G|-----------------------------------------------------------------------|
D|-----------------------------------------------------------------------|
A|-----------------------------------------------------------------------|        x4
E|-------5-7-7----7---7----5-7-7----7---7----5-7-7----7---7----5-7-7-5~--|

Guitar solo:
G|--------------------------------------------------------|
D|--------------------------------------------------------|
A|--------------------------------------------------------|      x2
E|-----5-7-7---2-4-4---5-7-7---2-4-4--0-------------------|

Leads to:

G|----------------------------------------------------------------------------------------------|
D|----------------------------------------------------------------------------------------------|
A|-----------------------------7-7----7-----------------------------------------7-7----7--------|
E|----7-7----7-10-10----10-----------10-10----10-7-7----7-10-10----10-----------10-10----10-7~--|

Main riff: guitar plays alone before everyone else:

G |----------------------------------------------------|
D |----------------------------------------------------|
A |-----------5/7\5-----------5-7-5--------------------|      x3
E |----5h7----------5-7-7------------------------------|

Variation on fourth time

G|------------------------------------------------|
D|------------------------------------------------|
A|-------------5/7\5------------------------------|
E|------5h7----------5-7-7-7-7-7-7-7-7------------|

Then this next riff is played until the end:

G|-------------------------|--------------------------|
D|-------------------------|--------------------------|
A|-------------------------|--------------------------|
E|----5-7-5-7-7-0-------|-------5-7-5-7---------------|    ends with this last one.
              x8


Legend
/ slide up
\ slide down
~ let ring
            

comments powered by Disqus
↑ Back to top | Velvet Revolver Bass for Get Out The Door. Lyrics for acoustic guitar and electric guitar. Tablatures and chords are parodies/interpretations of the original songs. You may use it for private study, scholarship, research or language learning purposes only