>
 >
Get Out The Door

Get Out The Door Guitar Tabs

Velvet Revolver - Get Out The Door chords, tabs, tablatures, lyrics

Guitar lessons | Add/correct | Request | Top 50 tabs Artists:  A B C D E F G H I J K L M N O P Q R S T U V W X Y Z 0-9

Get Out The Door Guitar Tabs – Velvet Revolver

CD, Sheet music, Poster

Do you like Get Out The Door? Share with your friends now
Bass TabsTabsTabs v2Tabs v3
-------------------------------------------------------------------------------
-------------------------------------------------------------------------------

Tuning: Drop D

This tab is to play the song with 1 guitarist, so it's sort of a mix of lead and rhythm, 
rhythm. Also wrote some alternate riffs you can play to make it more leadish.

Intro- (0:00-0:14)
e|---------------------------------------|
B|---------------------------------------|
G|------------7/9\7-------------7--9-7---|
D|---7--9~----7/9\7----7--9-9---7--9-7---|
A|---7--9~----5/7\5----7--9-9---5--7-5---|
E|---7--9~-------------7--9-9------------|x4

Verse 1- (0:15-0:29)
e|-------------------------------------------------|
B|-------------------------------------------------|
G|-------------------------------------------------|
D|---7--9-9-----4--6-6-----7--9-9-----4--6-6---0---|
A|---7--9-9-----4--6-6-----7--9-9-----4--6-6---0---|
E|---7--9-9-----4--6-6-----7--9-9-----4--6-6---0---|x2

Verse 2- (0:30-0:40)
e|------------------------------------|    |-----------|
B|------------------------------------|    |-----------|
G|-----------7--9-9----------6--7-7---|    |-----------|
D|---7--9-9--7--9-9--2--4-4--6--7-7---|    |---7--9\---|
A|---7--9-9--5--7-7--2--4-4--4--5-5---|    |---7--9\---|
E|---7--9-9----------2--4-4-----------|x2  |---7--9\---|

Chorus- (0:41-0:55)
e|---------------------------------------|
B|---------------------------------------|
G|------------7/9\7-------------7--9-7---|
D|---7--9~----7/9\7----7--9-9---7--9-7---|
A|---7--9~----5/7\5----7--9-9---5--7-5---|
E|---7--9~-------------7--9-9------------|x4

Verse 1- (0:56-1:17)
e|-------------------------------------------------|
B|-------------------------------------------------|
G|-------------------------------------------------|
D|---7--9-9-----4--6-6-----7--9-9-----4--6-6---0---|
A|---7--9-9-----4--6-6-----7--9-9-----4--6-6---0---|
E|---7--9-9-----4--6-6-----7--9-9-----4--6-6---0---|x3

Verse 2- (1:18-1:28)
e|------------------------------------|    |-----------|
B|------------------------------------|    |-----------|
G|-----------7--9-9----------6--7-7---|    |-----------|
D|---7--9-9--7--9-9--2--4-4--6--7-7---|    |---7--9\---|
A|---7--9-9--5--7-7--2--4-4--4--5-5---|    |---7--9\---|
E|---7--9-9----------2--4-4-----------|x2  |---7--9\---|

Chorus- (1:29-1:43)
e|---------------------------------------|
B|---------------------------------------|
G|------------7/9\7-------------7--9-7---|
D|---7--9~----7/9\7----7--9-9---7--9-7---|
A|---7--9~----5/7\5----7--9-9---5--7-5---|
E|---7--9~-------------7--9-9------------|x4

Interlude- (1:44-2:13)
(with wah pedal)
be sure not to hold down the 9, let it go, mute it right after you pick it.
e|---------------------------------------------------------|
B|---------------------------------------------------------|
G|---------------------------------------------------------|
D|---7--9-9--9--9--7--9-9--9--9--7--9-9--9--9--7--9-9--0---|
A|---7--9-9--9--9--7--9-9--9--9--7--9-9--9--9--7--9-9--0---|
E|---7--9-9--9--9--7--9-9--9--9--7--9-9--9--9--7--9-9--0---|x4
you could also play this riff, it keeps along with the vocals better, wether or not they 
play it.
e|----------------------------|
B|----------------------------|
G|---4--7--9--------9--7--2---|
D|---4--7--9--------9--7--2---|
A|---2--5--7--0--2--7--5--0---|
E|------------0--2------------|

Pre Solo- (2:14-2:20)
e|-----------7^-----------4^-----------7^---------------|
B|-----------7^-----------4^-----------7^---------------|
G|------------------------------------------------------|
D|---7--9-9-------4--6-6-------7--9-9-------7--9-9--0---|
A|---7--9-9-------4--6-6-------7--9-9-------7--9-9--0---|
E|---7--9-9-------4--6-6-------7--9-9-------7--9-9--0---|

Solo 1- (2:21-2:28)
lead is using a talkbox here.
e|-------------------------------------------------|
B|-------------------------------------------------|
G|-------------------------------------------------|
D|---7--9-9-----4--6-6-----7--9-9-----4--6-6---0---|
A|---7--9-9-----4--6-6-----7--9-9-----4--6-6---0---|
E|---7--9-9-----4--6-6-----7--9-9-----4--6-6---0---|

Solo 2- (2:29-2:39)
lead is using a wah pedal and is playing pentonic scale starting at 7th fret on the G 
B string so if you'd rather play a solo here make up your own from the scale.
e|------------------------------------|    |-----------|
B|------------------------------------|    |-----------|
G|-----------7--9-9----------6--7-7---|    |-----------|
D|---7--9-9--7--9-9--2--4-4--6--7-7---|    |---7--9\---|
A|---7--9-9--5--7-7--2--4-4--4--5-5---|    |---7--9\---|
E|---7--9-9----------2--4-4-----------|x2  |---7--9\---|

Chorus- (2:40-2:53)
e|---------------------------------------|    |-----------------------------|
B|---------------------------------------|    |-----------------------------|
G|------------7/9\7-------------7--9-7---|    |------------7/9\-------------|
D|---7--9~----7/9\7----7--9-9---7--9-7---|    |---7--9~----7/9\----7--9-9---|
A|---7--9~----5/7\5----7--9-9---5--7-5---|    |---7--9~----5/7\----7--9-9---|
E|---7--9~-------------7--9-9------------|x3  |---7--9~------------7--9-9---|
Lead played over this (not 100% sure about this one)
e|---------12-------------14^---|
B|---------------15-14-12-------|
G|---12-14----14----------------|
D|------------------------------|
A|------------------------------|
E|------------------------------|

Verse 3- (2:54-end)
e|---------------------|    |-----------------|
B|---------------------|    |-----------------|
G|---------------------|    |-----------------|
D|---7--9--7--9-9--0---|    |---7--9--7--9\---|
A|---7--9--7--9-9--0---|    |---7--9--7--9\---|
E|---7--9--7--9-9--0---|x8  |---7--9--7--9\---|


*Notes*

-The vibrato for the intro and chorus is optional, and if you do do it, I suggest just a 
minor change in pitch.

-The chorus has a lead guitar lick over it, if you wanna play that instead, here it is, 
I'm not 100% sure about this one.
e|---------12-------------14^---|
B|---------------15-14-12-------|
G|---12-14----14----------------|
D|------------------------------|
A|------------------------------|
E|------------------------------|

| ^  full bend
| /  slide up
| \  slide down
| h  hammer-on
| p  pull-off
| ~  vibrato
| +  harmonic
| x  Mute note
=====================================================================





Comments


Popular Velvet Revolver tabs & chords
Do It For The Kids 1 Bass Tabs
Headspace Bass Tabs
Fall To Pieces 1 Chords
Can't Get It Out Of My Head 1 Tabs
Illegal I Song Intro Tabs
Loving The Alien Tabs
Set Me Free Tabs
She Mine 2 Tabs
Slither 2 Tabs
You Got No Right (Solo Ver 2) Tabs


Song lyrics



↑ Back to top | Tablatures and chords are parodies/interpretations of the original songs. You may use it for private study, scholarship, research or language learning purposes only
© 2014 AZChords.com Contact us | Privacy policy | DMCA | Add/correct tabs | Request tabs | Top 50 tabs