» » »

Usher, You Make Me Wanna...  Tabs (ver.2)

Artists:  A B C D E F G H I J K L M N O P Q R S T U V W X Y Z # 

You Make Me Wanna...  Tabs (ver.2)

Usher Tabs
Rating:
0/5 (0 votes)
You Make Me Wanna...  lessons Tabs too difficult? Try these video lessons and learn fast
                "(1)
 ****Capo 1st Fret****

 

 Tab is relative to the capo. Sorry I don't know the bridge of the song. This will 
give you enough to enjoy a quick jam!

 -Zak Sisak

(D):Down Stroke
(U):Up Stroke
 x :Mute
 / :Slide Down
 ~ :Vibrato

   (D) (U)(D)                (U U D D U)   (U U D D U)
e----------x------------------------------------------------------|
B---3---3--x--------3---------------------------------------------|
G---4---4--x------0-----------4-4-4-4-4-----3-3-3-3-3-------------|
D---4---4--x--4/5-----5-------5-5-5-5-5-----4-4-4-4-4-------------|
A---2---2--x------------5~----5-5-5-5-5-----4-4-4-4-4-------------|
E----------x--0---------------3-3-3-3-3-----2-2-2-2-2-------------|


Verse - ***8 Beat Count***
e-----------------------------------------------------------------|
B---3-3---0-0-----------------------------------------------------|
G---4-4---0-0----4-4---3-3----------------------------------------|
D---4-4---2-2----5-5---4-4----------------------------------------|
A---2-2---2-2----5-5---4-4----------------------------------------|
E---------0-0----3-3---2-2----------------------------------------|
"            

comments powered by Disqus
↑ Back to top | Usher Tabs for You Make Me Wanna... . Lyrics for acoustic guitar and electric guitar. Tablatures and chords are parodies/interpretations of the original songs. You may use it for private study, scholarship, research or language learning purposes only