» » »

Usher, Something Special Tabs (ver.1)

Artists:  A B C D E F G H I J K L M N O P Q R S T U V W X Y Z # 

Something Special Tabs (ver.1)

Usher Tabs
Rating:
5/5 (4 votes)
Something Special lessons Tabs too difficult? Try these video lessons and learn fast
                Intro
Chorus
Verse x4
Bridge
Chorus
Breakdown
Verse
Bridge
Chorus x2
Breakdown
Chorus x2
Outro


INTRO

|-9----10---7-----|
|-11---10---9-----|
|-10---10---8-----|
|-11---10---9-----|
|-9---------7-----|
|------10-------0-|

CHORUS

|-------------5---------------------5---5---4---9---7h10p7---7h10p7-|
|-2---3---5---7-----7---2---3---5---7---6---5---10--7--------7------|
|-2---2---4---6-----7---2---2---4---6---5---4---9---7--------7------|
|-2---0-------7-----7---2---0-------7---7---6---11--7--------7------|
|-----2---4---5---5/7-------2---4---5---5---4---9------------7------|
|---------------------------------------------------7---------------|

VERSE

|-9----7h10p7---5---4-|
|-10---7--------7---6-|
|-9----7--------6---4-|
|-11---7--------7---6-|
|-9-------------5---4-|
|------7--------------|

BRIDGE


|-9------------------------7h10p7---|
|-11---------------11h12---7--------|
|-9----------------11h13---7--------|
|-11---------11h12---------7--------|
|-9----11h13---------------7--------|
|-----------------------------------|

BREAKDOWN

|-8----5---2---3---5---7---9---5---7-|
|-10---5---2---1---5---7---9---7---7-|
|-9----4---2---2---6---7---9---6---7-|
|-10---4---2---3---6---7---9---7---7-|
|-8----5-----------5-----------5---7-|
|------5---2-------5---7---9---------|

OUTRO

|-9----10---7-----|
|-11---10---5-----|
|-10---10---6-----|
|-11---10---6-----|
|-9---------5-----|
|------10---5-----|
            

comments powered by Disqus
↑ Back to top | Usher Tabs for Something Special. Lyrics for acoustic guitar and electric guitar. Tablatures and chords are parodies/interpretations of the original songs. You may use it for private study, scholarship, research or language learning purposes only