» » »

Usher, You Make Me Wanna...  Tabs (ver.1)

Artists:  A B C D E F G H I J K L M N O P Q R S T U V W X Y Z # 

You Make Me Wanna...  Tabs (ver.1)

Usher Tabs
 Rating:
4/5 (4 votes)
You Make Me Wanna...  lessons Tabs too difficult? Try these video lessons and learn fast
1
                Standard Tuning (Spacing is fairly accurate to timing)

| | --------------------------------------------------------------- | |
| | --------------------------------------------------------------- | |
| | ---8----------8----------5-5----4-4---------------------------- | |
| | ----------0-6-------------------------------------------------- | |
| | -----------------6--------------------------------------------  | |
| | --------------------------------------------------------------- | |
        (This part is played during Verses 1,2 and during chorus)



(Lyrics) Usher - You Make Me Wanna..


CHORUS

You make me wanna leave the one I'm with,
Start a new relationship with you,
This is what you do,
Thinking 'bout the ring and all the things that come along,
When you make me, you make me....
(repeat)

VERSE 1

Before anything came between us she was like my best friend,
The one I used to run and talk to when me and my girl was having
problems,
She used to say it'll be okay,
Suggest little nice things I should do,
And when I go home at night and lay my head down,
All I seem to think about was you,
How you make me wanna,

**(Chorus)***

VERSE 2

Now what's bad,
Is you're the one that hooked us up,
Knowing it shoulda been you,
What's sad is that I love her but I'm falling for you,
What should I do,
Should I,
Tell my baby bye bye,
Should I,
Do exactly what I feel inside
Could I,
I don't wanna go,
I don't need to stay,
But I really need to get it together

****(Chorus)****

VERSE 3

At this point,
The situtation's outta control,
I never meant to hurt her,
But I gotta let her go,
And she,
May not understand it,
Why all of this is going on,
I tried,
I tried to fight it,
But the feelings just to strong,
You make me,
Make me.....


****(Chorus 3x)****


*That's all there is.. its pretty simple! Let me know if anyone gets the 
rest of it or come up any other R&B tabs (e-mail above).




Usher- "you make me wanna"




this sounds pretty close to me. i dont have the cd so im doing this from
memory.

may be in the wrong key though.


      Cm            G#                      G
e---------------------------------------------------------
b---4------------4----------4---4-----4-----3----------
g---5------------5----------5---5h7h5-----4----------
d--------5h6-----------6--------------6-----5----------
a---3-----------------------------------------------------
e----------------------------------------------------------
            
Submit corrections

comments powered by Disqus
↑ Back to top | Usher Tabs for You Make Me Wanna... . Lyrics for acoustic guitar and electric guitar. 1 Tablatures and chords are parodies/interpretations of the original songs. You may use it for private study, scholarship, research or language learning purposes only