» » »

You Got It Bad Tabs (ver.1)

Artists:  A B C D E F G H I J K L M N O P Q R S T U V W X Y Z # 

You Got It Bad Tabs (ver.1)

Usher
Rating:
0/5 (0 votes)

Hard to play? Try these video lessons and learn fast.
                
---13-13-------------------------13-------------------------------------------
---------16-14-14-16----14----16----14-16-13-14-------------------------------
---------------------15----15-------------------15-13-15----------------------
---------------------------------------------------------15-13----------------
                                                                              

---------------------------------------------------13-14-16-16-16-16-18-16----
---------------------------------------16-14----14-------------------------18-
------------------------------13----13-------16-------------------------------
---------------------------15----15-------------------------------------------
---18-13----------16-13-16----------------------------------------------------
---------13-16-13-------------------------------------------------------------
                                                                              

---16-18-20-21-20-18-16-18----------------16-14-14----------------------------
---------------------------18-16-14-16-14----------18-18-16-16-14-18----------
            
Hard to play? Try these video lessons and learn fast. | Correct




comments powered by Disqus
↑ Back to top | Tablatures and chords are parodies/interpretations of the original songs. You may use it for private study, scholarship, research or language learning purposes only