» » »

Usher, You Make Me Wanna...  Tabs (ver.3)

Artists:  A B C D E F G H I J K L M N O P Q R S T U V W X Y Z # 

You Make Me Wanna...  Tabs (ver.3)

Usher Tabs
Rating:
0/5 (0 votes)
You Make Me Wanna...  lessons Tabs too difficult? Try these video lessons and learn fast
                "(2)
You Make Me Wanna
By Usher

Standard Tuning E A D G B e
Capo 1st fret(chords relative to capo/capo is open string)


Chorus/Intro
e--------------------------------------------------------------|
B-3-------3----------------------------------------------------|
G-4-----0------4--4-----3--3-----------------------------------|
D-4---4--------5--5-----4--4-----------------------------------|
A-2---------5--5--5-----4--4-----------------------------------|
E-----0--------3--3-----2--2-----------------------------------|

Verse
e-------------------------------------------------------------|
B-------------------------------------------------------------|
G-4--4----------------------3---------------------------------|
D-4--4---2---2--4--5--5--4--3---------------------------------|
A-2--2---2---2--4--5--5--4--1---------------------------------|
E--------0---0--2--3--3--2------------------------------------|

Bridge
e----------------------------------------------------------------|
B-----------2----2----2-----2----3-----3----5--5---7-------------|
G-4-----4-----0----------0---------0--------5--5---7-------------|
D---0---------------------------------------5--5---7-------------|
A-----------0---0-----1----1-----2----2-----3--3---5-------------|
E-3---3----------------------------------------------------------|
"            

comments powered by Disqus
↑ Back to top | Usher Tabs for You Make Me Wanna... . Lyrics for acoustic guitar and electric guitar. Tablatures and chords are parodies/interpretations of the original songs. You may use it for private study, scholarship, research or language learning purposes only