>
 >
An Invitation 1

An Invitation 1 Guitar Tabs

Urban Dub - An Invitation 1 chords, tabs, tablatures, lyrics

Guitar lessons | Add/correct | Request | Top 50 tabs Artists:  A B C D E F G H I J K L M N O P Q R S T U V W X Y Z 0-9

An Invitation 1 Guitar Tabs – Urban Dub

CD, Sheet music, Poster

Do you like An Invitation 1? Share with your friends now
TabsTabs v2

Tuning: Drop D  half step down
Legend: / - slide
       () - ghost note
        h - hammer
	p - pull-off
	x - dead note
	* - palm mute
	~ - Let it ring
       PM - palm mute also


*For corrections, suggestions,etc... Just post it here or message me personally.* 

*Listen carefully to the song to get the timing.* 


Intro (0:00-0:11)

Gtr 1(clean) & Gtr 2(Distortion)
Eb|-------------------------------------------------------------------||
Bb|--10101010-xx-8888-xx------xx-8888-xx-10101010-xx-8888-xx-10101010-||
Gb|--10101010-xx-9999-xx-9999-xx-9999-xx-10101010-xx-9999-xx-10101010-|| 
Db|--x-x-x-x--xx-8888-xx-8888-xx-8888-xx-x-x-x-x--xx-8888-xx-x-x-x-x--||
Ab|--8-8-8-8--xx-8888-xx-8888-xx-8888-xx-8-8-8-8--xx-8888-xx-8-8-8-8--||
Db|--8-8-8-8--xx-8888-xx-8888-xx-8888-xx----------xx-8888-xx----------||
  |                                                                   ||
Eb|-------------------------------------------------------------------||
Bb|--------------------------------15~--------------------------------||
Gb|----------------------7~/////14------------------------------------|| 
Db|-------------------------------------0--------------------0--------||
Ab|-------------------------------------0--------------------0--------||
Db|-------------------------------------0--------------------0--------||

(0:11-0:13)

Gtr 1 & 2 (Distortion)
Eb|--------------------||
Bb|--------------------||
Gb|--------5-----------|| 
Db|--------------------||
Ab|--5-7-8-----7h8-----||
Db|--------------------||


(0:13-0:19)

Gtrs 1 & 2 (Distortion)
Eb|--------------------------------------------------------||
Bb|--------------------------------------------------------||
Gb|-------109-------109-9---------109-------109-9----------|| 
Db|---8-8-8-8-8-8-8-8-8-8-10~8888-8-8-8-8-8-8-8-8-10~------||
Ab|---8-8-8-8-8-8-8-8-8-8-8--8888-8-8-8-8-8-8-8-8-8--------||
Db|---8-8-8-8-8-8-8-8-8-8-8--8888-8-8-8-8-8-8-8-8-8--------||
  |                                                        ||
Eb|--------------------------------------------------------||
Bb|--------------------------------------------------------||
Gb|--------------------------------------------------------|| 
Db|---8-8-8-8-8-8-8-8-8-8-8--8888-8-8-8-8-8-8-8-8-8--------||
Ab|---8-8-8-8-8-8-8-8-8-8-8--8888-8-8-8-8-8-8-8-8-8--------||
Db|---8-8-8-8-8-8-8-8-8-8-8--8888-8-8-8-8-8-8-8-8-8--------||

(0:19-0:25)
Gtrs 1 & 2 (Distortion)
Eb|-----------8-10------------------8-10------------||
Bb|---10-8---------10~------10-8---------10~--------||
Gb|--------10--------------------10-----------------|| 
Db|-------------------------------------------------||
Ab|-------------------------------------------------||
Db|-------------------------------------------------||
  |                                                 ||	
Eb|-------------------------------------------------||
Bb|-------------------------10101010~---------------||
Gb|---1010101010101010------10101010~------5--------|| 
Db|---x-x-x-x-x-x-x-x--0000------------------5h7~---||
Ab|---8-8-8-8-8-8-8-8--0000---------5-7-8-----------||
Db|--------------------0000-------------------------||

Verse (0:25-0:37)

Gtrs 1 & 2 (Distortion)

            Meet me after dark We'll go against the weather
Eb|---------------------------------------------||
Bb|---------------------------------------------||
Gb|---------------------------------------------|| 
Db|--88888x--88888x--88888x--88888101010x-------||
Ab|--88888x--88888x--88888x--88888101010x-------||
Db|--88888x--88888x--88888x--88888101010x-------||

	    We'll fight...	 
Eb|----------------------------------------------||
Bb|----------------------------------------------||
Gb|----------------------------------------------|| 
Db|--00000x--00000x--00000x--(8)(8)-8-10---------||
Ab|--00000x--00000x--00000x--(8)(8)-8-10---------||
Db|--00000x--00000x--00000x--(8)(8)-8-10---------||

(0:37-0:46)

Gtrs 1 & 2 (Distortion) 

	    The ordinary eyes...     it all
Eb|---------------------------------------------||
Bb|---------------------------------------------||
Gb|---------------------------------------------|| 
Db|---------------------------------------------||
Ab|---------------------------------------------||
Db|--88*8*88*8*88*8*88*8*88*8*88*88*8*88*10*----||
  |                                             ||
Eb|---------------------------------------------||
Bb|-------------5*------------------5*----------||
Gb|-------5*(5*)--------------5*(5*)------------|| 
Db|---------------------------------------------||
Ab|--5*7*8*-------------5*7*8*------------------||
Db|---------------------------------------------||

       They can see...     it all
Eb|-------------------------------||
Bb|-------------------------------||
Gb|-------------------------------|| 
Db|-------------------------10----||
Ab|-------------------------10----||
Db|--1212*12*1212*12*1212*--10----||
  |                               ||	
Eb|-------------------------------||
Bb|--------------5*---------------||
Gb|--------5*(5*)------------5----|| 
Db|--------------------------x----||
Ab|--5*7*8*------------------3----||
Db|-------------------------------||


(0:46-0:53)

Gtr 2 (Clean) 

	Don't be afraid...     Meet me halfway I got you 
Eb|-----------------------------------------------------------||
Bb|-------------------------11~-------------------------------||
Gb|-------------------------10~-------------------------------|| 
Db|--10~--------------------8~--------------------------------||
Ab|--8~---------------------8~--------------------------------||
Db|-(8)~-------------------(8)~-------------------------------||

(0:53-0:59)

Gtrs 1 & 2 (Clean)

   now              I  got  you  now
	
Eb|--------------------------------------------------||
Bb|--------------------------------8--8--------------||
Gb|--------------------------------9--9-(9)(9)-------|| 
Db|--------------------------------10-10-----(10)-10-||
Ab|-------------------------------(10-10)---------10-||
Db|-----------------------------------------------10-|| *Resume Distortion at C5*
  |                                                  ||
Eb|---12-----12--12--12--12--12--12--12--12-12-------||
Bb|-10--10-10--10--10--10--10--10--10--10-----10-----||
Gb|-------(10)(10)(10)(10)(10)(10)(10)(10)---(10)----|| 
Db|--------------------------------------------------||
Ab|--------------------------------------------------||
Db|--------------------------------------------------||

(0:59-1:05)

Gtrs 1 & 2 (Distortion)

       Coz when we go....      to carry you
Eb|-----------------------------------------||
Bb|-----------------------------------------||
Gb|-----------------------------------------|| 
Db|--88888x---88888x---88888x---8(8)10(10)--||
Ab|--88888x---88888x---88888x---8(8)10(10)--||
Db|--88888x---88888x---88888x---8(8)10(10)--||
  |                                         ||
Eb|-----------------------------------------||
Bb|-----------------------------------------||
Gb|-----------------------------------------|| 
Db|-----------------------------------------||
Ab|-------8888-----8888-----8888(not sure)--||
Db|-----------------------------------------||

(1:05-1:12)

Gtrs 1 & 2 (Distortion)

      Erase the traces...      every thing, every thing new
Eb|------------------------------------------------------||
Bb|------------------------------------------------------||
Gb|------------------------------------------------------|| 
Db|--00000x-----00000x---00000x----(8)(8)-8--10----------||
Ab|--00000x-----00000x---00000x----(8)(8)-8--10----------||
Db|--00000x-----00000x---00000x----(8)(8)-8--10----------||
  |                                                      ||	
Eb|------------------------------------------------------||
Bb|------------------------------------------------------||
Gb|-------10-9\7-----7-9-10---10/12----------------------|| 
Db|-------x--x-x-----x-x-x----x--x--------8--10----------||
Ab|-------8--7\5-----5-7-8----8-/10-------8--10----------||
Db|---------------------------------------8--10----------||

(1:12-1:18)

Gtr 2 (Distortion)

    With wounds to...      again
Eb|-----------------------------------------------------||
Bb|-----------------------------------------------------||
Gb|-----------------------------------------------------|| 
Db|--8888888888888---888888888888-----------------------||
Ab|--8888888888888---888888888888-----------------------||
Db|--8888888888888---888888888888-----------------------||


Chorus (1:18-1:30)

Gtrs 1 & 2 (Distortion)

    Don't be afraid...Meet me halfway...
Eb|----------------------------------------||
Bb|----------------------------------------||
Gb|----------------------------------------|| 
Db|--3-3-3-3-3-3-3-3-7-7-7-7-7-7-7-7-------||
Ab|--3-3-3-3-3-3-3-3-7-7-7-7-7-7-7-7-------||
Db|--3-3-3-3-3-3-3-3-7-7-7-7-7-7-7-7-------||

   I got you now     I got you now...
Eb|----------------------------------------||
Bb|----------------------------------------||
Gb|----------------------------------------|| 
Db|--3-3-3-3-3-3-3-3-7-7-7-7-7-7-7---------||
Ab|--3-3-3-3-3-3-3-3-7-7-7-7-7-7-7---------||
Db|--3-3-3-3-3-3-3-3-7-7-7-7-7-7-7---------||
  |                                        ||	
Eb|----------------------------------------||
Bb|---------8~~~~~~~~~~~~~~~8~~~~~w/effect-||
Gb|--9--10~----------9--10~----------------|| 
Db|----------------------------------------||
Ab|----------------------------------------||
Db|----------------------------------------||
 
Gtr 1 & 2 (Distortion)
Eb|--------------------||
Bb|--------------------||
Gb|--------5-----------|| 
Db|--------------------||
Ab|--5-7-8-----7h8-----||
Db|--------------------||

(1:30-1:42)

Gtrs 1 & 2 (Distortion)

    Don't be afraid...Meet me halfway...
Eb|----------------------------------------||
Bb|----------------------------------------||
Gb|----------------------------------------|| 
Db|--8-8-8-8-8-8-8-8-8-8-8-8-8-8-8-8-------||
Ab|--8-8-8-8-8-8-8-8-8-8-8-8-8-8-8-8-------||
Db|--8-8-8-8-8-8-8-8-8-8-8-8-8-8-8-8-------||
  |                                        ||	
Eb|----------------------------------------||
Bb|----------------------------------------||
Gb|--9--------9------9-------9-------------|| 
Db|----10-------------10-------------------||
Ab|--------7-8------------7-8--------------||
Db|----------------------------------------||

   I got you now    I got you now...
Eb|------------------------------------||
Bb|------------------------------------||
Gb|------------------------------------|| 
Db|--7-7-7-7-7-7-7--101010101010-------||
Ab|--7-7-7-7-7-7-7--101010101010-------||
Db|--7-7-7-7-7-7-7--101010101010-------||
  |                                    ||	
Eb|------------------------------------||
Bb|------------------------------------||
Gb|-------9-------------------9--------|| 
Db|---------------10-------------------||
Ab|--7h8-7---7h8p7------7h8-7----------||
Db|------------------------------------||

(1:42-1:43)

Gtr 1 &  2 (Distortion)
Eb|--------------------||
Bb|--------------------||
Gb|--------5-----------|| 
Db|--------------------||
Ab|--5-7-8-----7h8-----||
Db|--------------------||
  |		       ||
Eb|--------------------||
Bb|--------------------||
Gb|--109-7---7-9-------|| 
Db|--------10----------||
Ab|--------------------||
Db|--------------------||


(1:44-1:50)

Gtrs 1 & 2 (Distortion)
Eb|--------------------------------------------------------||
Bb|--------------------------------------------------------||
Gb|-------109-------109-9---------109-------109-9----------|| 
Db|---8-8-8-8-8-8-8-8-8-8-10~8888-8-8-8-8-8-8-8-8-10~------||
Ab|---8-8-8-8-8-8-8-8-8-8-8--8888-8-8-8-8-8-8-8-8-8--------||
Db|---8-8-8-8-8-8-8-8-8-8-8--8888-8-8-8-8-8-8-8-8-8--------||
  |                                                        ||
Eb|--------------------------------------------------------||
Bb|--------------------------------------------------------||
Gb|--------------------------------------------------------|| 
Db|---8-8-8-8-8-8-8-8-8-8-8--8888-8-8-8-8-8-8-8-8-8--------||
Ab|---8-8-8-8-8-8-8-8-8-8-8--8888-8-8-8-8-8-8-8-8-8--------||
Db|---8-8-8-8-8-8-8-8-8-8-8--8888-8-8-8-8-8-8-8-8-8--------||

(1:50-1:56)

Eb|-----------8-10--------------------8-10------------||
Bb|---10-8---------10~--------10-8----------10--------||
Gb|--------10----------------------10-----------------|| 
Db|---------------------------------------------------||
Ab|---------------------------------------------------||
Db|---------------------------------------------------||
  |						      ||	
Eb|---------------------------------------------------||
Bb|---------------------------10101010~---------------||
Gb|---1010109-9-9-9121212-----10101010~------5--------|| 
Db|---x-x-x-x-x-x-x-x-----0000-----------------5h7~---||
Ab|---8-8-8-7-7-7-7101010-0000---------5-7-8----------||
Db|-----------------------0000------------------------||

Bridge (1:56-2:05)

Gtrs 1 & 2(Distortion)
Eb|-----------------------------------------------------------||
Bb|-----------------------------------------------------------||
Gb|-----------------------------------------------------------|| 
Db|-----------------------------------------------------------||
Ab|--88---88---88---88---88---88---88---88--------------------||
Db|--88---88---88---88---88---88---88---88--------------------||
  |							      ||
Eb|-----------------------------------------------------------||
Bb|-----------------------------------------------------------||
Gb|----5-7-----------------5-7--------------------------------|| 
Db|---------5-7--7-5---10-------5-7--7-5---10-----------------||
Ab|-------88--------88------------------88--------------------||
Db|-----------------------------------------------------------||

Eb|----------------------------------------||
Bb|----------------------------------------||
Gb|----------------------------------------|| 
Db|----------------------------------------||
Ab|--00---00---1010---1010-----------------||
Db|--00---00---1010---1010-----------------||
  |                                        ||	
Eb|----------------------------------------||
Bb|----------------------------------------||
Gb|----5-7---------------------------------|| 
Db|----------5-7----7-5--------------------||
Ab|--------------------------12*10*--------||
Db|------------------------10*-------------||

(2:05-2:25)

Gtrs 1 & 2(Distortion)

      You take to let...   You trusted...
Eb|-----------------------------------------------------------||
Bb|-----------------------------------------------------------||
Gb|-----------------------------------------------------------|| 
Db|-----------------------------------------------------------||
Ab|--88---88---88---88---88---88---88---88--------------------||
Db|--88---88---88---88---88---88---88---88--------------------||
  |							      ||
Eb|-----------------------------------------------------------||
Bb|-----------------------------------------------------------||
Gb|----5-7-----------------5-7--------------------------------|| 
Db|---------5-7--7-5---10-------5-7--7-5---10-----------------||
Ab|-----------------88------------------88--------------------||
Db|-----------------------------------------------------------||

       Then I'm not...    alone
Eb|----------------------------------------||
Bb|----------------------------------------||
Gb|----------------------------------------|| 
Db|----------------------------------------||
Ab|--00---00---1010---1010-----------------||
Db|--00---00---1010---1010-----------------||
  |                                        ||	
Eb|----------------------------------------||
Bb|----------------------------------------||
Gb|----5-7---------------------------------|| 
Db|----------5-7----7-5--------------------||
Ab|--------------------------12*10*--------||
Db|------------------------10*-------------||

      You take to let...   You trusted...
Eb|-----------------------------------------------------------||
Bb|-----------------------------------------------------------||
Gb|-----------------------------------------------------------|| 
Db|-----------------------------------------------------------||
Ab|--88---88---88---88---88---88---88---88--------------------||
Db|--88---88---88---88---88---88---88---88--------------------||
  |							      ||
Eb|-----------------------------------------------------------||
Bb|-----------------------------------------------------------||
Gb|----5-7-----------------5-7--------------------------------|| 
Db|---------5-7--7-5---10-------5-7--7-5---10-----------------||
Ab|-----------------88------------------88--------------------||
Db|-----------------------------------------------------------||

       Then I'm not...    alone
Eb|----------------------------------------||
Bb|----------------------------------------||
Gb|----------------------------------------|| 
Db|----------------------------------------||
Ab|--00---00---1010---1010-----------------||
Db|--00---00---1010---1010-----------------||
  |                                        ||	
Eb|----------------------------------------||
Bb|----------------------------------------||
Gb|----5-7---------------------------------|| 
Db|----------5-7----7-5--------------------||
Ab|--------------------------12*10*--------||
Db|------------------------10*-------------||

(2:25-2:37)

Gtrs 1 & 2(Distortion)
		    Alone...
Eb|----------------------------------------------------------||
Bb|----------------------------------------------------------||
Gb|----------------------------------------------------------|| 
Db|--0~------10~-----0~-----------------10~------------------||
Ab|--0~------10~-----0~-----------------10~------------------||
Db|--0~------10~-----0~-----------------10~------------------||
  |							     ||	
Eb|----------------------------------------------------------||
Bb|----------------------------------------------------------||
Gb|------------------9-10-10/12-10-12-12/14\12~--------------|| 
Db|----------------------------------------------------------||
Ab|----------------------------------------------------------||
Db|----------------------------------------------------------||

(2:37-2:49)

  Would you run...  come on come on.
PM- - - - - - - - - - - - - - - - - - - - - - - - - - PM
Eb|---------------------------------------------------||
Bb|---------------------------------------------------||
Gb|---------------------------------------------------|| 
Db|--8-8-8-8-8-8-8-8-8-8-8-8-8-8-8-8------------------||
Ab|--8-8-8-8-8-8-8-8-8-8-8-8-8-8-8-8------------------||
Db|--8-8-8-8-8-8-8-8-8-8-8-8-8-8-8-8------------------||


  Would you run...         Leave everything...   
PM- - - - - - - - - - - - - - - - - - - - - - - - - - PM
Eb|---------------------------------------------------||
Bb|---------------------------------------------------||
Gb|---------------------------------------------------|| 
Db|--12-12-12-12-12-12-12-12-10-10-10-10-10-10-10-10--||
Ab|--12-12-12-12-12-12-12-12-10-10-10-10-10-10-10-10--||
Db|--12-12-12-12-12-12-12-12-10-10-10-10-10-10-10-10--||

Solo (2:49-3:01)

Gtrs 1 (Distortion) & 2 (w/effects)
						   Live life...
Eb|-----------------------------------------------------------||
Bb|-----------------------------------------------------------||
Gb|-----------------------------------------------------------|| 
Db|--88----88---88-88---88---------1212----1212-12--101010~---||
Ab|--88----88---88-88---88---------1212----1212-12--101010~---||
Db|--88-8--88-8-88-88-8-88-8-10h12-1212-12-1212-12--101010~---||
  |                                                           || 
Eb|-----------------------------------------------------------||
Bb|-----------------------------------------------------------||
Gb|--10-------------------------------------------------------|| 
Db|-----10---8---------------------1212----10-----------------||
Ab|----8----8----8-10-8-12-8-------1212------10-12------------||
Db|--------------------------10h12-1212-12----------101010~---||

Chorus (3:01-3:13)

Gtrs 1 & 2 (Distortion)

    Don't be afraid...Meet me halfway...
Eb|----------------------------------------||
Bb|----------------------------------------||
Gb|----------------------------------------|| 
Db|--3-3-3-3-3-3-3-3-7-7-7-7-7-7-7-7-------||
Ab|--3-3-3-3-3-3-3-3-7-7-7-7-7-7-7-7-------||
Db|--3-3-3-3-3-3-3-3-7-7-7-7-7-7-7-7-------||
  |					   ||	
Eb|----------------------------------------||
Bb|----------------------------------------||
Gb|----------------------------------------|| 
Db|--3-3-3-3-3-3-3-3-7-7-7-7-7-7-7-7-------||
Ab|--3-3-3-3-3-3-3-3-7-7-7-7-7-7-7-7-------||
Db|--3-3-3-3-3-3-3-3-7-7-7-7-7-7-7-7-------||

    now....          I got you now...
Eb|----------------------------------------||
Bb|----------------------------------------||
Gb|----------------------------------------|| 
Db|--3-3-3-3-3-3-3-3-7-7-7-7-7-7-7---------||
Ab|--3-3-3-3-3-3-3-3-7-7-7-7-7-7-7---------||
Db|--3-3-3-3-3-3-3-3-7-7-7-7-7-7-7---------||
  |					   ||	
Eb|----------------------------------------||
Bb|---------8~~~~~~~~~~~~~~~8~~~~~w/effect-||
Gb|--9--10~--------------------------------|| 
Db|----------------------------------------||
Ab|----------------------------------------||
Db|----------------------------------------||

Gtrs 1 & 2 (Distortion)
Eb|--------------------||
Bb|--------------------||
Gb|--------5-----------|| 
Db|--------------------||
Ab|--5-7-8-----7h8-----||
Db|--------------------||

(3:13-3:26)

Gtrs 1 & 2 (Distortion)

    Don't be afraid...Meet me halfway...
Eb|----------------------------------------||
Bb|----------------------------------------||
Gb|----------------------------------------|| 
Db|--8-8-8-8-8-8-8-8-8-8-8-8-8-8-8-8-------||
Ab|--8-8-8-8-8-8-8-8-8-8-8-8-8-8-8-8-------||
Db|--8-8-8-8-8-8-8-8-8-8-8-8-8-8-8-8-------||
  |                                        ||	
Eb|----------------------------------------||
Bb|----------------------------------------||
Gb|--9--------9------9-------9-------------|| 
Db|----10-------------10-------------------||
Ab|--------7-8------------7-8--------------||
Db|----------------------------------------||

   I got you now     I got you now...
Eb|----------------------------------------||
Bb|----------------------------------------||
Gb|----------------------------------------|| 
Db|--7-7-7-7-7-7-7--1010101010101010-------||
Ab|--7-7-7-7-7-7-7--1010101010101010-------||
Db|--7-7-7-7-7-7-7--1010101010101010-------||
  |					   ||	
Eb|----------------------------------------||
Bb|----------------------------------------||
Gb|-------9----------------9---------------|| 
Db|---------------10---------------10------||
Ab|--7h8-7---7h8p7----7h8-7---7h8p7--------||
Db|----------------------------------------||

(3:26-3:38)

   I got you now     I got you now...
Eb|----------------------------------------||
Bb|----------------------------------------||
Gb|----------------------------------------|| 
Db|--3-3-3-3-3-3-3-3-7-7-7-7-7-7-7-7-------||
Ab|--3-3-3-3-3-3-3-3-7-7-7-7-7-7-7-7-------||
Db|--3-3-3-3-3-3-3-3-7-7-7-7-7-7-7-7-------||
  |                                        ||	
Eb|----------------------------------------||
Bb|--9h109-9999999-9h10/12-1212121212\10---||
Gb|----------------------------------------|| 
Db|----------------------------------------||
Ab|----------------------------------------||
Db|----------------------------------------||

   I got you now     I got you now...
Eb|---------------------------------------||
Bb|---------------------------------------||
Gb|---------------------------------------|| 
Db|--3-3-3-3-3-3-3-3-7-7-7-7-7-7-7-7------||
Ab|--3-3-3-3-3-3-3-3-7-7-7-7-7-7-7-7------||
Db|--3-3-3-3-3-3-3-3-7-7-7-7-7-7-7-7------||
  |                                       ||	
Eb|---------------------------------------||
Bb|--9h109-9999999-9h10/12-12121212-------||
Gb|---------------------------------------|| 
Db|---------------------------------------||
Ab|---------------------------------------||
Db|--------------------------------\\\\\\\||

OUtro (3:38-3:50)

Gtrs 1 & 2 (Distortion)
Eb|---------8-10-----------------8-10-------||
Bb|-10-8---------10~-----10-8---------10~---||
Gb|------10-------------------10------------|| 
Db|-----------------------------------------||
Ab|-----------------------------------------||
Db|-----------------------------------------||
  |                                         || 
Eb|-----------------------------------------||
Bb|-----------------------------------------||
Gb|----------------------------99999-9h10p9-|| 
Db|-----------10101010~---------------------||
Ab|-(8-p-7~)-------------7h8p7--------------||
Db|-----------------------------------------||

Eb|---------8-10----------------------------||
Bb|-10-8---------10~-----1010101010101010~--||
Gb|------10---------------------------------|| 
Db|-----------------------------------------||
Ab|-----------------------------------------||
Db|-----------------------------------------||
  |                                         || 
Eb|-----------------------------------------||
Bb|-----------------------------------------||
Gb|--------------~-------------99999999/12~-|| 
Db|-----------10101010~---------------------||
Ab|-(8-p-7~)-------------7h8p7--------------||
Db|-----------------------------------------||

(3:50-4:13)

Gtr 1 (Clean)

Eb|---------------------------------------------------||
Bb|--10101010-xx-8888---------------------------------||
Gb|--10101010-xx-9999---------------------------------|| 
Db|--x-x-x-x--xx-8888---0~----------------------------||
Ab|--8-8-8-8--xx-8888---0~-end with distortion--------||
Db|--8-8-8-8--xx-8888---0~----------------------------||


			\end/





Comments


Popular Urban Dub tabs & chords
Endless A Silent Whisper 2 Bass Tabs
The Apparition Chords
The Fight Is Over 2 Chords
A Method To Chaos 1 Tabs
A New Tattoo Intro Tabs
Boy Tabs
Soul Searching 1 Tabs
Under Crisis Tabs
Give Ukulele
What This Night Brings Ukulele


Song lyrics



↑ Back to top | Tablatures and chords are parodies/interpretations of the original songs. You may use it for private study, scholarship, research or language learning purposes only
© 2014 AZChords.com Contact us | Privacy policy | DMCA | Add/correct tabs | Request tabs | Top 50 tabs