>
 >
An Invitation

An Invitation Guitar Tabs

Urban Dub - An Invitation chords, tabs, tablatures, lyrics

Guitar lessons | Add/correct | Request | Top 50 tabs Artists:  A B C D E F G H I J K L M N O P Q R S T U V W X Y Z 0-9

An Invitation Guitar Tabs – Urban Dub

CD, Sheet music, Poster

Do you like An Invitation? Share with your friends now
TabsTabs v2
pages/Arista-Lucena/226729694026830


Made in Lucena City

x-dead string
*-mute
h-hammer
p-pull off
tr-tremolo

Intro-
1.

GtrI
|-----x--x--x--x-----x--x--x--x-----|
|----10-10-10-10-----8--8--8--8-----|
|----10-10-10-10-----9--9--9--9-----|
|-00-8--8--8--8--00--8--8--8--8-----|
|-00-8--8--8--8--00--8--8--8--8-----|
|-00-8--8--8--8--00--8--8--8--8-----|
   
2.
GtrI
|-----x--x--x--x-----x--x--x--x-----|
|----10-10-10-10-----8--8--8--8-----|
|----10-10-10-10-----9--9--9--9-----|
|-00-8--8--8--8--00--8--8--8--8-----|
|-00-8--8--8--8--00--8--8--8--8-----|
|-00-8--8--8--8--00--8--8--8--8-----|
GtrII
|--------------------------------------------------------|
|-----------------------------15~-(15)-(15)--------------|
|---7~------------/14~(14)-------------------------------|
|--------------------------------------------------------|
|--------------------------------------------------------|
|--------------------------------------------------------|
3.
GtrI
|-----x--x--x--x-----x--x--x--x-----|
|----10-10-10-10-----8--8--8--8-----|
|----10-10-10-10-----9--9--9--9-----|
|-00-8--8--8--8--00--8--8--8--8-----|
|-00-8--8--8--8--00--8--8--8--8-----|
|-00-------------00--8--8--8--8-----|
 
GtrII
|-----------------------------------------|
|-----------------------------------------|
|-----------------------------------------|
|---0~------------------------------------|
|---0~------------------------------------|
|---0~------------------------------------|

2.

GtrI
|------------------------------------------|
|----10-10-10-10---------------------------|
|----10-10-10-10-----------5---------------|
|-00-8--8--8--8---------------------8------|
|-00-8--8--8--8------5h7-8-----7h8--8------|
|-00--------------------------------8------|
                         *
GtrII
|-----------------------------------------|
|-----------------------------------------|
|-----------------------------------------|
|---0~------------------------------------|
|---0~------------------------------------|
|---0~------------------------------------|



2. 09283150081
GtrI
|----------------------------------------------------------------|
|----------------------------------------------------------------|
|------10--9---------10--9-------------10--9---------10--9-------|
|----x-x-x-x-x-10-8--x---x---10~-----x-x-x-8-x-10-8--x-x-x---10~-|
|----8-8-8-8-8-8--8--8-8-8---8-------8-8-8-8-8-8--8--8-8-8---8---|
|----8-8-8-8-8-8--8--8-8-8---8-------8-8-8-8-8-8--8--8-8-8---8---|

GtrII
|----------------------------------------------------------------|
|----------------------------------------------------------------|
|----------------------------------------------------------------|
|----------------------------------------------------------------|
|--8-8-8-8-8-8-8-8-8-8-8--888888---8-8-8-8-8-8-8-8-8-8-8-888888--|
|--8-8-8-8-8-8-8-8-8-8-8--888888---8-8-8-8-8-8-8-8-8-8-8-888888--|
                        


3.
GtrI
|----------8~--10-------------------8~--10---------------|
|-8-10~-----------10~------8-10~-----------10~-----------|
|-------10-----------------------10----------------------|
|--------------------------------------------------------|
|--------------------------------------------------------|
|--------------------------------------------------------|

GtrII
|--------------------------------------------------------|
|--------------------------------------------------------|
|-10-10-10-10-10-10--1010/14-14-14-14--------------------|
|---------------------------------------------10---------|
|-8--8--8--8--8--8---8-8-/12-12-12-12--—5/7-8----7h8~----|
|--------------------------------------------------------|
                                            *
    

Verse- 09283150081
meet me after dark...
GtrI
|-------------------------------------------------------------------------|
|-------------------------------------------------------------------------|
|-------------------------------------------------------------------------|
|--888888888----888888888----888888888----888888888----1010101010101010---|
|--888888888----888888888----888888888----888888888----1010101010101010---|
|--888888888----888888888----888888888----888888888----1010101010101010---|
 
GtrII
|-------------------------------------------------------------------------|
|-------------------------------------------------------------------------|
|-------------------------------------------------------------------------|
|-------------------------------------------------------------------------|
|--888888888----888888888----888888888----888888888----1010101010101010---|
|--888888888----888888888----888888888----888888888----1010101010101010---|
 
We'll fight, well they can't decide for us...
GtrI
|-------------------------------------------------------------------------|
|-------------------------------------------------------------------------|
|-------------------------------------------------------------------------|
|-1212121212121212---1212121212121212--1212121212121212--8~-----10~-------|
|-1212121212121212---1212121212121212--1212121212121212--8~-----10~-------|
|-1212121212121212---1212121212121212--1212121212121212--8~-----10~-------|
     
GtrII
|-------------------------------------------------------------------------|
|-------------------------------------------------------------------------|
|---------------------------------------10~--------------14~-----8~-------|
|-0~-------------------0~----------------------------------------x--------|
|-0~-------------------0~---------------8~---------------12~-----10~------|
|-0~-------------------0~----------------------------------------10~------|

Their ordinary eyes can't see through it all.
GtrI
|-------------------------------------------------------------------------|
|-------------------------------------------------------------------------|
|-------------------------------------------------------------------------|
|-8-8-8-8-8-8-8-8-8-8-8-8-8-8-8-8-8-8-8-8-8-8-8-8-8-8-8-8-8-8-8-10101010--|
|-8-8-8-8-8-8-8-8-8-8-8-8-8-8-8-8-8-8-8-8-8-8-8-8-8-8-8-8-8-8-8-10101010--|
|-8-8-8-8-8-8-8-8-8-8-8-8-8-8-8-8-8-8-8-8-8-8-8-8-8-8-8-8-8-8-8-10101010--|
  * * * * * * * * * * * * * * * * * * * * * * * * * * * * * * * * * * *
GtrII
|-------------------------------------------------------------------------|
|-------------------------------------------------------------------------|
|------------------9------------------------------------9-----------------|
|--------10----------------10----------------10---------------10----------|
|-5-7-8-------7-8------7-8-----7-8-7---5-7-8-------7-8----7-8----10-8-7-8-|
|-------------------------------------------------------------------------|
  * * *       * *      * *     * * *   * * *       * *    * *    *  * * *

can't see through it all.
GtrI
|------------------------------|
|------------------------------|
|------------------------------|
|-121212121212121212121212-10~-|
|-121212121212121212121212-10~-|
|-121212121212121212121212-10~-|
  * * * * * * * * * * * *
GtrII
|------------------------------|
|------------------------------|
|---------------9----------12--|
|-------10-----------------x---|
|-5-7-8-----7-8----7-8-7---10--|
|--------------------------10--|
  * * *     * *    * * *

refrain1 09283150081
Dont be afraid coz...  I got you now...
GtrI
|---------------------------------------------------------------------------------|
|-------------------------8-----8------8------8-------8------8------8-----8-------|
|---------------------------9-----9------9------9------9------9-------9----9------|
|-----------------------------------------------------------------------------10--|
|----------------------8------8------8-------8------8-------8-----8-----8-----10--|
|-----------------------------------------------------------------------------10--|
GtrII
|-------------------------12-----12-----12------12-----12----12----12-----12--------|
|----------------11~--------10-----10-----10------10-----10----10---10-----10-------|
|-10~------------10~----10-----10-----10-----10------10-----10----10----10------12--|
|-8~-------------8~-------------------------------------------------------------x---|
|-8~-------------8~-------------------------------------------------------------10--|
|-8~-------------8~-------------------------------------------------------------10--|


RefII

Cuz when we go...
GtrI
|-------------------------------------------------------------------------|
|-------------------------------------------------------------------------|
|-------------------------------------------------------------------------|
|--888888888----888888888----888888888----888888888----1010101010101010---|
|--888888888----888888888----888888888----888888888----1010101010101010---|
|--888888888----888888888----888888888----888888888----1010101010101010---|
 

GtrII
|-------------------------------------------------------------------------|
|-------------------------------------------------------------------------|
|-------------------------------------------------------------------------|
|-------------------------------------------------------------------------|
|--888888888-----888888888-----888888888-----888888888--1010101010101010--|
|--888888888-7tr-888888888-7tr-888888888-7tr-888888888--1010101010101010--|
    

Erase the traces...
GtrI
|-------------------------------------------------------------------------|
|-------------------------------------------------------------------------|
|-------------------------------------------------------------------------|
|-1212121212121212----1212121212121212----1212121212121212--000-101010----|
|-1212121212121212----1212121212121212----1212121212121212--000-101010----|
|-1212121212121212----1212121212121212----1212121212121212--000-101010----|
 GtrII
|-------------------------------------------------------------------------|
|-------------------------------------------------------------------------|
|----------10-/-9--/-7----------7-/-9-/-10---------10-/-12--14---12-------|
|-----------------------------------------------------------x----x--------|
|-00000000-8--/-7--/-5-00000000—5-/-7-/-8-00000000—8--/-10--12---10-------|
|-00000000-------------00000000-----------00000000----------12---10-------|


with wouds to mend...
GtrI
|------------------------------------------------------------------------|
|------------------------------------------------------------------------|
|-------------------------------------101010101010-1010101010101010------|
|-8--8-8-8-8-8-8-8-8-8-8-8-8-8-8-8----8-8-8-8-8-8--8-8-8-8-8-8-8-8-------|
|-8--8-8-8-8-8-8-8-8-8-8-8-8-8-8-8----8-8-8-8-8-8--8-8-8-8-8-8-8-8-------|
|-8--8-8-8-8-8-8-8-8-8-8-8-8-8-8-8----8-8-8-8-8-8--8-8-8-8-8-8-8-8-------|
     * * * * * * * * * * * * * * *

GtrI
|-------------------------------------------------------------------------|
|-------------------------------------------------------------------------|
|-------------------------------------------------------------------------|
|------------------------------------8~-----8~----------------------------|
|-8--8-8-8-8-8-8-8-8-8-8-8-8-8-8-8-8-8~-----8~----------------------------|
|-8--8-8-8-8-8-8-8-8-8-8-8-8-8-8-8-8-8~-----8~----------------------------|
     * * * * * * * * * * * * * * *
Chorus- 09283150081
dont be afraid coz,,,
GtrI
|-------------------------------------------------------------------------|
|-------------------------------------------------------------------------|
|-------------------------------------------------------------------------|
|-3-3-3-3-3-3-3-3-7-7-7-7-7-7-7-7-3-3-3-3-3-3-3-3-7-7-7-7-----------------|
|-3-3-3-3-3-3-3-3-7-7-7-7-7-7-7-7-3-3-3-3-3-3-3-3-7-7-7-7-----------------|
|-3-3-3-3-3-3-3-3-7-7-7-7-7-7-7-7-3-3-3-3-3-3-3-3-7-7-7-7-----------------|
GtrII
|-------------------------------------------------------------------------|
|-5-5-5-5-5-5-5-5-8-8-8-8-8-8-8-8-----------------------------------------|
|-5-5-5-5-5-5-5-5-9-9-9-9-9-9-9-9—9h10-12121212~-9h10-12121212~-----------|
|-3-3-3-3-3-3-3-3-7-7-7-7-7-7-7-7-----------------------------------------|
|-3-3-3-3-3-3-3-3-7-7-7-7-7-7-7-7-----------------------------------------|
|-3-3-3-3-3-3-3-3-7-7-7-7-7-7-7-7-----------------------------------------|

2.
dont be afraid...
GtrI
|------------------------------------------------|
|------------------------------------------------|
|------------------------------------------------|
|-------------8-8-8-8-8-8-8-8-8-8-8-8-8-8-8-8-8--|
|-------------8-8-8-8-8-8-8-8-8-8-8-8-8-8-8-8-8--|
|-------------8-8-8-8-8-8-8-8-8-8-8-8-8-8-8-8-8--|
GtrII
|---------------------------------------------------------|
|---------------------------------------------------------|
|----------------99----------------99----------------99---|
|--------10---------------10-----------------10-----------|
|-5/7-8------7h8------7h8----7h8p7-------7h8----7h8p7-----|
|---------------------------------------------------------|

GtrI
|----------------------------------------------------|
|----------------------------------------------------|
|---------------------------------------5------------|
|-7-7-7-7-7-7-7-7-7-10-10-10-10----------------------|
|-7-7-7-7-7-7-7-7-7-10-10-10-10----5/7-8-----7h8-----|
|-7-7-7-7-7-7-7-7-7-10-10-10-10----------------------|
GtrII
|----------------------------------------------------|
|----------------------------------------------------|
|--------9~-----------------99----/10-9-7-----7-9----|
|------------------10--------------------10----------|
|--7h8p7-------7h8----7h8p7--------------------------|
|----------------------------------------------------|

Interlude-
GtrI
|----------------------------------------------------------------|
|----------------------------------------------------------------|
|------10--9---------10--9-------------10--9---------10--9-------|
|----x-x-x-x-x-10-8--x---x---10~-----x-x-x-8-x-10-8--x-x-x---10~-|
|----8-8-8-8-8-8--8--8-8-8---8-------8-8-8-8-8-8--8--8-8-8---8---|
|----8-8-8-8-8-8--8--8-8-8---8-------8-8-8-8-8-8--8--8-8-8---8---|
GtrII
|----------------------------------------------------------------|
|----------------------------------------------------------------|
|----------------------------------------------------------------|
|----------------------------------------------------------------|
|--8-8-8-8-8-8-8-8-8-8-8--888888---8-8-8-8-8-8-8-8-8-8-8-888888--|
|--8-8-8-8-8-8-8-8-8-8-8--888888---8-8-8-8-8-8-8-8-8-8-8-888888--|
                          




3.
GtrI
|----------8~--10-------------------8~--10---------------|
|-8-10~-----------10~------8-10~-----------10~-----------|
|-------10-----------------------10----------------------|
|--------------------------------------------------------|
|--------------------------------------------------------|
|--------------------------------------------------------|
GtrII
|--------------------------------------------------------|
|--------------------------------------------------------|
|-10-10-10/99-9/1212-1212/14--14-14-14-------------------|
|----------------------------------------------10--------|
|-8--8—-8-/77—7/1010—1010/12--12-12-12---5/7-8----7h8----|
|--------------------------------------------------------|

Verse2
It's safe to let go....   That I'm not in ...
GtrI
|--------------------------------------------------------|
|--------------------------------------------------------|
|--------------------------------------------------------|
|-88-88-88-88-88-88-88-88--12-12-12-12--10-10-10-10------|2x
|-88-88-88-88-88-88-88-88--12-12-12-12--10-10-10-10------|
|-88-88-88-88-88-88-88-88--12-12-12-12--10-10-10-10------|
  ** ** ** ** ** ** ** **  *  *  *  *   *  *  *  * 
GtrII
|--------------------------------------------------------------------------|
|--------------------------------------------------------------------------|
|--------------------------------------------------------------------------|
|---10h12-------------------------10----10h12--------------------------10--|
|-88------88-10h12-88-12p10-57-8------88------88-10h12-88-12p10-57-8-------|
|-88------88-------88-----------------88------88-------88------------------|
  **      **       **       ** *  *   **      **       **       ** *   * 
|------------------------------------------------|
|------------------------------------------------|
|------------------------------------------------|
|----10h12---------------------------------------|
|-00-------00-10h12--1010-12h10--10-10-8---------|
|-00-------00--------1010--------10------10------|
  **       **        * *         ** *  * *
|--------------------------------------------------------------------------|
|--------------------------------------------------------------------------|
|--------------------------------------------------------------------------|
|---10-12-------------------------10----10-12--------------------------10--|
|-88------88-10-12-88-12-10-57-8------88------88-10-12-88-12-10-57-8-------|
|-88------88-------88-----------------88------88-------88------------------|
  ** * *  ** *  *  ** *  *  ** *  *   ** *  * ** *  *  ** *   * ** *   *
|------------------------------------------------|
|------------------------------------------------|
|------------------------------------------------|
|----10-12---------------------------------------|
|-00-------00-10-12--1010-12-10--10-10-8---------|
|-00-------00--------1010--------10------10------|
  ** *  *  **  * **  * *  *  *   *  * *   *


                           mmm..woah.....
GtrI
|--------------------------------------------------------|
|--------------------------------------------------------|
|--------------------------------------------------------|
|-0~---------10~-----------0~------------10~-------------|
|-0~---------10~-----------0~------------10~-------------|
|-0~---------10~-----------0~------------10~-------------|
GtrII
|--------------------------------------------------------|
|--------------------------------------------------------|
|-----------------12s-9-10—1212~---5/12~--14~--12~-------|
|-0~---------10~-----------------------------------------|
|-0~---------10~-----------------------------------------|
|-0~---------10~-----------------------------------------|


Bridge- 09283150081

Would you run away with me if its tonight....
GtrI(pm)

|-------------------------------------------------------------|
|-------------------------------------------------------------|
|-------------------------------------------------------------|
|-8-8-8-8-8-8-8-8-8-8-8-8-8-8-8-8-8-8-8-8-8-8-8-8-8-8-8-8-8-8-|
|-8-8-8-8-8-8-8-8-8-8-8-8-8-8-8-8-8-8-8-8-8-8-8-8-8-8-8-8-8-8-|
|-8-8-8-8-8-8-8-8-8-8-8-8-8-8-8-8-8-8-8-8-8-8-8-8-8-8-8-8-8-8-|
  * * * * * * * * * * * * * * * * * * * * * * * * * * * * * *                      
|----------------------------------------------------------------|
|----------------------------------------------------------------|
|----------------------------------------------------------------|
|--121212121212121212121212121212-101010101010101010101010101010-|
|--121212121212121212121212121212-101010101010101010101010101010-|
|--121212121212121212121212121212-101010101010101010101010101010-|
   * * * * * * * * * * * * * * *  * * * * * * * * * * * * * * *           

GtrII(pm)
|------------------------------------------------------------------|
|-1111111111111111111111111111111111111111111111111111111111111111-|
|-1010101010101010101010101010101010101010101010101010101010101010-|
|------------------------------------------------------------------|
|-8-8-8-8-8-8-8-8-8-8-8-8-8-8-8-8-8-8-8-8-8-8-8-8-8-8-8-8-8-8-8-8--|
|-8-8-8-8-8-8-8-8-8-8-8-8-8-8-8-8-8-8-8-8-8-8-8-8-8-8-8-8-8-8-8-8--|
   * * * * * * * * * * * * * * * * * * * * * * * * * * * * * *          
|-------------------------------------------------------------|
|-1010101010101010101010101010101011111111111111111111111111--|
|-1010101010101010101010101010101010101010101010101010101010--|
|-------------------------------------------------------------|
|-0-0-0-0-0-0-0-0-0-0-0-0-0-0-0-0-10-10-10-10-10-10-10-10-10--|
|-0-0-0-0-0-0-0-0-0-0-0-0-0-0-0-0-10-10-10-10-10-10-10-10-10--|
  * * * * * * * * * * * * * * * * * * * * * * * * * * * * * *                      

Post-bridge 09283150081

GtrI
|----------------------------------------------------------------|
|----------------------------------------------------------------|
|----------------------------------------------------------------|
|-8~-----8~-------8~---------8~-----------0~-------0~------------|
|-8~-----8~-------8~---------8~-----------0~-------0~------------|
|-8~-----8~-------8~---------8~-----------0~-------0~------------|


|--------------------------|
|--------------------------|
|--------------------------|
|-10-10101010101010--------|
|-10-10101010101010--------|
|-10-10101010101010--------|


GtrII(efx)
|------------------------------------------------------------------------|
|------------------------------------------------------------------------|
|-10~----------------------------------------------------12121212121212~-|
|----s---10~s---8~----------8~---10--10-/12---10-------------------------|
|-8~--0--8~--0--8~-10-8-----8~------------0-----10-10/12-10101010101010~-|
|-8~--0--8~--0--8~----------8~------------0------------------------------|




Chorus-
GtrI
|-------------------------------------------------------------------------|
|-------------------------------------------------------------------------|
|-------------------------------------------------------------------------|
|-3-3-3-3-3-3-3-3-7-7-7-7-7-7-7-7-3-3-3-3-3-3-3-3-7-7-7-7-----------------|
|-3-3-3-3-3-3-3-3-7-7-7-7-7-7-7-7-3-3-3-3-3-3-3-3-7-7-7-7-----------------|
|-3-3-3-3-3-3-3-3-7-7-7-7-7-7-7-7-3-3-3-3-3-3-3-3-7-7-7-7-----------------|
GtrI
|-------------------------------------------------------------------------|
|-5-5-5-5-5-5-5-5-8-8-8-8-8-8-8-8-----------------------------------------|
|-5-5-5-5-5-5-5-5-9-9-9-9-9-9-9-9—9h10-12121212~-9h10-12121212~-----------|
|-3-3-3-3-3-3-3-3-7-7-7-7-7-7-7-7-----------------------------------------|
|-3-3-3-3-3-3-3-3-7-7-7-7-7-7-7-7-----------------------------------------|
|-3-3-3-3-3-3-3-3-7-7-7-7-7-7-7-7-----------------------------------------|

2.
GtrI
|------------------------------------------------|
|------------------------------------------------|
|------------------------------------------------|
|-------------8-8-8-8-8-8-8-8-8-8-8-8-8-8-8-8-8--|
|-------------8-8-8-8-8-8-8-8-8-8-8-8-8-8-8-8-8--|
|-------------8-8-8-8-8-8-8-8-8-8-8-8-8-8-8-8-8--|
GtrII
|---------------------------------------------------------|
|---------------------------------------------------------|
|----------------99----------------99----------------99---|
|--------10---------------10-----------------10-----------|
|-5/7-8------7h8------7h8----7h8p7-------7h8----7h8p7-----|
|---------------------------------------------------------|
GtrI
|----------------------------------------------------|
|----------------------------------------------------|
|----------------------------------------------------|
|-7-7-7-7-7-7-7-7-7-10-10-10-10----------------------|
|-7-7-7-7-7-7-7-7-7-10-10-10-10----------------------|
|-7-7-7-7-7-7-7-7-7-10-10-10-10----------------------|
GtrI
|----------------------------------------------------|
|----------------------------------------------------|
|--------9~-----------------99-----------------------|
|------------------10------------------10------------|
|--7h8p7-------7h8----7h8p7-------7h8p7--------------|
|----------------------------------------------------|


Outro- 09283150081
GtrI2x
|-------------------------------------------------------------------------|
|-------------------------------------------------------------------------|
|-------------------------------------------------------------------------|
|-3-3-3-3-3-3-3-3-7-7-7-7-7-7-7-7-3-3-3-3-3-3-3-3-7-7-7-7-7-7-7-----------|
|-3-3-3-3-3-3-3-3-7-7-7-7-7-7-7-7-3-3-3-3-3-3-3-3-7-7-7-7-7-7-7-----------|
|-3-3-3-3-3-3-3-3-7-7-7-7-7-7-7-7-3-3-3-3-3-3-3-3-7-7-7-7-7-7-7-----------|

GtrII
|----------------------------------------------------------------|
|----------------------------------------------------------------|
|-9h10p9-9-9-9-9-9h10-1212121212--9h10p9-9-9-9-9/1212121212------|
|----------------------------------------------------------------|
|----------------------------------------------------------------|
|----------------------------------------------------------------|

GtrI
|----------8~--10-------------------8~--10--------------8~--10------|
|-8-10~-----------10~------8-10~-----------10~--8-10~-----------10~-|
|-------10-----------------------10------------------10-------------|
|-------------------------------------------------------------------|
|-------------------------------------------------------------------|
|-------------------------------------------------------------------|

GtrII
|----------------------------------------------|-----------------|
|----------------------------------------------|-----------------|
|------99----------------99----------------99--|-10101010-10/12--|
|--------------10-----------------10-----------|-----------------|
|-7h8------7h8----7h8p7-------7h8----7h8p7-----|-8-8-8-8--8-/10--|
|----------------------------------------------|-----------------|


End with

GtrI
|---- x--x--x--x-----x--x--x--x-----------|
|----10-10-10-10-----8--8--8--8-----------|
|----10-10-10-10-----9--9--9--9-----------|
|----8--8--8--8--00--8--8--8--8--00--0~---|
|----8--8--8--8--00--8--8--8--8--00--0~---|
|----8--8--8--8--00--8--8--8--8--00--0~---|
GtrII
|-----------------------------------------|
|-----------------------------------------|
|-----------------------------------------|
|------------------------------------0~---|
|------------------------------------0~---|
|------------------------------------0~---|

Meet me
after dark
We'll go against the weather
We'll fight, well they can't decide for us
Their minds are cynical
Their
ordinary eyes can't see through it all.

Don't be afraid cuz I'm here
Meet me half-way, I got you now
I got you
now.

Cuz when we go just so you know
I'll be right here to carry you
Erase the traces
Restart everything,
everything new
With wounds to mend
Hearts break but it can rebuild again.

It's safe to let go I`m right here with
you
It's you trust that I need to believe
That I'm not in this thing alone
Would you run away with me if It’s
tonight? 
Leave everything behind
Come on, come on.

I got you now.

 09283150081





Comments


Popular Urban Dub tabs & chords
Frailty Chords
The Fight Is Over 2 Chords
We Kept It Hidden 1 Chords
An Invitation 1 Tabs
Boy Tabs
First Of Summer 2 Tabs
First Of Summer 4 Tabs
Soul Searching 5 Tabs
A New Tattoo Ukulele
Gravity Ukulele


Song lyrics



↑ Back to top | Tablatures and chords are parodies/interpretations of the original songs. You may use it for private study, scholarship, research or language learning purposes only
© 2014 AZChords.com Contact us | Privacy policy | DMCA | Add/correct tabs | Request tabs | Top 50 tabs