» » »

Urban Dub, A Call To Arms Tabs (ver.2)

Artists:  A B C D E F G H I J K L M N O P Q R S T U V W X Y Z # 

A Call To Arms Tabs (ver.2)

Urban Dub Tabs
 Rating:
4/5 (4 votes)
A Call To Arms lessons Tabs too difficult? Try these video lessons and learn fast
1
                standard tuning drop D

sory kung mali kasi 30 minutes kulang tong pinagingan..

intro

e------------------|
b---3-4--3---4-----|
g---3----3-3-------|
d------------------|
a------------------|
d------------------|

verse 1

e-------------------|
b-------------------|
g--3----------------|
d--3--1---5---3--1--|  4x
a--1--1---5---3--1--|
d-----1---5---3--1--|

chorus

e-------------------|
b-------------------|
g--3----------------|
d--3--1---5---3--1--|  4x
a--1--1---5---3--1--|
d-----1---5---3--1--|

interclude
e----------------|
b----------------|
g--3------3------|
d--3--1---3---1--|  2x
a--1--1---1---1--|
d-----1-------1--|

verse 2

e----------------|
b----------------|
g--3------3------|
d--3--1---3---1--|   1x
a--1--1---1---1--|
d-----1-------1--|

e------------------|
b------------------|
g--3---------------|
d--3--1----6----1--|  1x
a--1--1----6----1--|
d-----1----6----1--|

chorus:

Bridge:

e--------------------------------|
b--------------------------------|
g---------------3----------------|
d-----5---3--1--3---5--3--1--6---|
a-----5---3--1--1---5--3--1--6---|
d-----5---3--1------5--3--1--6---|

e--------------    --------------|
b--------------    --------------|
g--3------3----    --------------|
d--3--1---3--1-    --5--3--1-----|
a--1--1---1--1-    --5--3--1-----|
d-----1------1-    --5--3--1-----|

lead:

e-------------------    -------------|
b-------------------    -------------|
g-----8--5--7--3---- 6x --8--5--7----|
d-----x--x--x--x----    --x---x---x--|
a-----6--3--5--1----    --6--3--5----|
d-------------------    -------------|

chorus:
            
Submit corrections

comments powered by Disqus
↑ Back to top | Urban Dub Tabs for A Call To Arms. Lyrics for acoustic guitar and electric guitar. 1 Tablatures and chords are parodies/interpretations of the original songs. You may use it for private study, scholarship, research or language learning purposes only