» » »

Urban Dub, A Call To Arms Tabs (ver.1)

Artists:  A B C D E F G H I J K L M N O P Q R S T U V W X Y Z # 

A Call To Arms Tabs (ver.1)

Urban Dub Tabs
 Rating:
4.2/5 (5 votes)
A Call To Arms lessons Tabs too difficult? Try these video lessons and learn fast
1
                
09283150081

Tinab ko lang ung riffs na mahalaga...

Wala pa akong lyrics

Tuning - Half Step Down

Intro-B
Verse - B E G#m F# E 2x B
Chorus - B E G#m F# E 2x
Postchorus- B E B E 2x
Verse2 - B E B E 
         B E A E
Chorus - B E G#m F# E 2x
Bridge- A .G#m F# E E 2x
        B .G#m F# E E 2x

Solo - B E 2x G#m F# E E
Chorus - B E G#m F# E 2x
Postchorus- B E B E 2x
End          B

Intro-Verse
eb|-------0------------0--------------------------|
bb|----4----4------4-----4--------4---------------|
gb|-4------------4---4---------4------------------|
db|-----------------------------------------------|2x
ab|-----------------------------------------------|
Eb|-----------------------------------------------|

Chorus_
eb|------------------------------------------------|
bb|------------------------------------------------|
gb|-16/18181818181818-(3x)-18/20\18-16161616161616-|
db|------------------------------------------------|
ab|-14/16161616161616-(3x)-16/18\16-14141414141414-|
Eb|------------------------------------------------|

eb|-----------9-----------------9-----------------|
bb|-------12-----12--------12------12-------------|
gb|--/11---------------11-------------------------|
db|-----------------------------------------------|4x
ab|-----------------------------------------------|
Eb|-----------------------------------------------|


Bridge B.-

eb|-----------------------------------------------------------------|
bb|-----------------------------------------------------------------|
gb|--8~----6~-----9-8~--13131313131313131313-1414141414141414141414-|
db|-----------------------------------------------------------------|
ab|--6~----4~-----7-6~--11111111111111111111-1212121212121212121212-|
Eb|-----------------------------------------------------------------|

Solo
GtrI
eb|----------------------------|----------------------|
bb|------------------------(3X)|----------------------|
gb|-111111-666-888-444-4/6\4---|-444-666-8888888888---|
db|----------------------------|----------------------|
ab|-9-9-9--444-666-222-2/4\2---|-222-444-6666666666---|
Eb|----------------------------|----------------------|

GtrII
eb|---------------(3X)-------------------|----------------------|
bb|--------------------------------------|----------------------|
gb|1111111-131313-151515-111111-11/9\11--|-99--1313131313131313-|
db|--------------------------------------|----------------------|
ab|-9-9-9--111111-131313-9-9-9---9/7\9---|-77--1111111111111111-|
Eb|--------------------------------------|----------------------|
            
Submit corrections

comments powered by Disqus
↑ Back to top | Urban Dub Tabs for A Call To Arms. Lyrics for acoustic guitar and electric guitar. 1 Tablatures and chords are parodies/interpretations of the original songs. You may use it for private study, scholarship, research or language learning purposes only