» » »

Oo Tabs (ver.3)

Artists:  A B C D E F G H I J K L M N O P Q R S T U V W X Y Z # 

Oo Tabs (ver.3)

Up Dharma Down
Rating:
0/5 (0 votes)

Hard to play? Try these video lessons and learn fast.
                oo - up dharma down
listen to the song for the strumming pattern.
these are all the chords used in the song.

intro
e|--------|
B|7h8p75\3|
G|--------|
D|--------|
A|--------|
E|--------|

 DM7   G
|5-5---3-3-3--|
|7--7--3-3--3-|
|6---6-4-3---3|
|7-----5-5----|   4x
|5-----3-3----|
|5-----3-3----|

verse
 DM7   G
|5-----3h5---|
|7-----3-----|
|6-----4-----|
|7-----5-----|   4x
|5-----3-----|
|5-----3-----|
      or
w/ delay  & phaser
|-----5------|
|5----3------|
|6----4------|
|7-----------|   4x
|------------|
|------------|

chorus
 Em  F#m Bm
|0---2---2-|
|0---2---3-|
|0---2---4-|
|2---4---4-|   4x
|2---4---2-|
|0---2---2-|

do verse
do chorus 2x (Bm connects the two choruses)
do verse
do chorus 2x (Bm connects the two choruses)
do verse for outro
            
Hard to play? Try these video lessons and learn fast. | Correct




comments powered by Disqus
↑ Back to top | Tablatures and chords are parodies/interpretations of the original songs. You may use it for private study, scholarship, research or language learning purposes only