» » »

Up Dharma Down, Oo Tabs (ver.2)

Artists:  A B C D E F G H I J K L M N O P Q R S T U V W X Y Z # 

Oo Tabs (ver.2)

Up Dharma Down Tabs
 Rating:
4/5 (4 votes)
Oo lessons Tabs too difficult? Try these video lessons and learn fast
1
                hullo!!! D ako magaling pero desperate nko makakita ng tab neto ung isang version okay 
okay din
version ko lamang eto pede nyo gawing one step higher ung chords, dami effects ng song 
acoustic lamang na version eto, add me sa friendster mga repaps 
or violent reactions 09104380944

intro [ “OO” intro nga! hehe ]

---0----0-0-0-0--0-----0--------0----0-0-0------0--------||
---2----2-2-2-2--2-------1------0----0-0-0------0-*H-----||
---1----1-1-1-1--1---------2----1----1-1-1------1-*O-----||
---2----2-2-2-2--2---2----------1----1-1-1------1-*L-----||
--------------------------------2----2-2-2------2-*D-----||
---------------------------------------------------------||

kayo na bahala sa mga riffs in between sa intro kasi wala akong audio ng song na eto 
ko lang through sound waves in my head hihihi.

Verse  [chords lang mga tol wak na angal! Mga tamad! Hehe]

---0----0-0-0-0--0--------0----0-0-0------0--------||
---2----2-2-2-2--2--------0----0-0-0------0-*H-----||
---1----1-1-1-1--1--------1----1-1-1------1-*O-----||
---2----2-2-2-2--2--------1----1-1-1------1-*L-----||
--------------------------2----2-2-2------2-*D-----||
---------------------------------------------------||
Di mo lang alam... naiisip kita
Baka sakali lang maisip mo ako...
Di mo lang alam... hanggang sa gabi
Inaasam makita kang muli

[basta ganyan pagkadinig koh tama ba kung mali d gumawa kayo ng sarili nyong tab!!! hehe]

Pre-chorus [kayo na bahala sa strumming dito kakatamad gumawa netong mga numerong eto!]

       c#m                   f#7
|--------4---------|   |-------2-------||
|--------5---------|   |-------2-------||
|--------6---------|   |-------3-------||
|--------6---------|   |-------2-------||
|--------4---------|   |-------4-------||
|--------4---------|   |-------2-------||
Nagtapos ang lahat      sa di inaasahang
Panahon at ngayon...    ako'y iyong iniwan...


                     A
|--------------------0-----------------||
|--------------------2-----------------||
|--------------------2-----------------||
|--------------------2-----------------||
|--------------------0-----------------||
|--------------------------------------||

    luhaang sugatan di mapakinabangang


                F#7                      A
|----------------2----------|    |-------0-------||
|----------------2----------|    |-------2-------||
|----------------3----------|    |-------2-------||
|----------------2----------|    |-------2-------||
|----------------4----------|    |-------0-------||
|----------------2----------|    |---------------||
 sanay nagtanong ka lang kung     di mo lang alam...

                 B
|-------------------------------------------||
|----------------4--*H----------------------||
|----------------4---O----------------------||
|----------------4---L----------------------||
|----------------2---D----------------------||
|-------------------------------------------||
sanay nagtang ka lang kung di mo lang alam...
            
Submit corrections

comments powered by Disqus
↑ Back to top | Up Dharma Down Tabs for Oo. Lyrics for acoustic guitar and electric guitar. 1 Tablatures and chords are parodies/interpretations of the original songs. You may use it for private study, scholarship, research or language learning purposes only