» » »

Oo Bass tabs (ver.1)

Artists:  A B C D E F G H I J K L M N O P Q R S T U V W X Y Z # 

Oo Bass tabs (ver.1)

Up Dharma Down
Rating:
0/5 (0 votes)

Hard to play? Try these video lessons and learn fast.
                - my first tab, hope this'll help
you guys out with the song.
alter the notes yourself if
you're not satisfied. c:

*the choruses are tricky
but i'm pretty sure you can do it

Intro:

G|--------|--------|--------|-----|  
D|--------|--------|--------|---5-| 
A|5-5-0-5-|--------|5-5-0-5-|--5--|  <-- (2x)
E|--------|3-3-2-3-|--------|3----|

First Part/Stanza:
("di mo lang alam naiisip kita..")

G|-------|-------|-------|-----|
D|-------|-------|-------|-----|
A|55-0-5-|-------|55-0-5-|-----|
E|-------|33-2-3-|-------|33-2-|

G|-------|-------|-------|--------|
D|-------|-------|-------|--------|
A|55-0-5-|-------|55-0-5-|--------|
E|-------|33-2-3-|-------|33-2-3-2|

First Refrain:
("nagtapos ang lahat sa di inaasahang..")

G|-------------------------|
D|-------54----------------|
A|----------2-2-0-22-0-2-0-|
E|0-0-22-------------------|

G|-------------------------|
D|-------54----------------|
A|----------2-2-0-22-0-2-0-|
E|0-0-22-------------------|

G|-------------------------|
D|-------54------------4---|
A|----------2-2-0-22-0---0-|
E|0-0-22-------------------|

G|------------|
D|-------54---|
A|----------2-|
E|0-0-22------|

Second Part/Stanza:

("ako'y 'yong nasaktan /
baka sakali lng maisip mo nman..")

G|--------|--------|
D|--------|--------|
A|5-5-0-5-|--------|
E|--------|3-3-2-3-|

G|--------|--------|
D|--------|--------|
A|5-5-0-5-|--------|
E|--------|3-3-2-3-|

("hindi mo lang alam kay tagal panahon..")

G|----------|----------|
D|----------|----------|
A|5-5-0-5-7-|----------|
E|----------|3-3-2-3-5-|

G|----------|----------|
D|--------7-|----------|
A|5-5-0-5---|----------|
E|----------|3-3-2-3-5-|

Second Refrain (REPEAT First refrain):
("lumipas mga araw na ubod ng saya..")

First Chorus:

("di mo lang alam ako'y 'yong nasaktan..")

G|--------------4-2-4-2----------|
D|--2---4-2-0----4-----4---------|
A|------------2----------0-------|
E|0---2--2-----------------2-0-2-|

G|-----------------0-242---242-----------|
D|--2---4-2-0---24-------4-----4---------|
A|------------2------------------0-------|
E|0---2--2-------------------------2-0-2-|

G|---------------4-2---2---------------|
D|--2---4-2-0--------4---4-2-4---------|
A|------------22---------------0-------|
E|0---2--2-----------------------2-0-2-|

G|--------------|
D|--2---4-2-0---|
A|------------2-|
E|0---2--2------|

Third Part/Stanza:

G|--------|------|
D|--------|------|
A|5-5-0-5-|------|
E|--------|3-3-2-|

("bumabalik ang lahat sa tuwing..")

G|--------|--------|
D|--------|--------|
A|5-5-0-5-|--------|
E|--------|3-3-2-3-|

G|-------------|----------------|
D|----------54-|----------------|
A|5-5-0-5-7----|--------------0-|
E|-------------|3-3-2-3---2-3---|

G|----------|----------|
D|----------|----------|
A|5-5-0-5-7-|----------|
E|----------|3-3-2-3-5-|

Third Refrain (ung may bagsakan):

("matalino ka naman..")

G|-------------------------|
D|-------54----------------|
A|----------2-2-0-22-0-2-0-|
E|0-0-22-------------------|

G|-------------------------|
D|-------54------------4---|
A|----------2-2-0-22-0---0-|
E|0-0-22-------------------|

("sana'y ka na lang pala aking nakilala")

G|---------------------------------------|
D|--------------7-9-7--------------------|
A|7-7-7-7-7-7-9-------9-0-2-2-0-22-0-4-0-|
E|---------------------------------------|

G|------------|
D|-------54---|
A|----------2-|
E|0-0-22------|

Second/Last Chorus:

("di mo lang alam ako'y 'yong nasaktan..")

G|--------------4-2-4-2----------|
D|--2---4-2-0----4-----4---------|
A|------------2----------0-------|
E|0---2--2-----------------2-0-2-|

G|-----------------0-242---242-----------|
D|--2---4-2-0---24-------4-----4---------|
A|------------2------------------0-------|
E|0---2--2-------------------------2-0-2-|

G|--------------------------|
D|--2---4-2-0-----------4---|
A|------------22-0-22-0---2-|
E|0---2--2------------------|

G|--------------|
D|--2---4-2-0---|
A|------------2-|
E|0---2--2------|

Outro:

("malas mo, ikaw ang natipuhan ko..")

G|--------|------|--------|-----|  
D|--------|------|--------|---5-| 
A|5-5-0-5-|------|5-5-0-5-|--5--|
E|--------|3-3-2-|--------|3----|

G|--------|-----| 
D|--------|---5-|
A|5-5-0-5-|--5--|
E|--------|3----|

* * *
            
Hard to play? Try these video lessons and learn fast. | Correct




comments powered by Disqus
↑ Back to top | Tablatures and chords are parodies/interpretations of the original songs. You may use it for private study, scholarship, research or language learning purposes only