» » »

Oo Bass tabs (ver.2)

Artists:  A B C D E F G H I J K L M N O P Q R S T U V W X Y Z # 

Oo Bass tabs (ver.2)

Up Dharma Down
Rating:
5/5 (1 vote)

Hard to play? Try these video lessons and learn fast.
                Oo By Updharmadown
Intro/Verse:(Bass)
G|-----------|-----------|
D|-----------|---------5-|(paulit-ulit lng yan)
A|5-5(tap)--5|--------5--|
E|--------5--|3-3(tap)---|

Refrain:
G|------------|
D|------------|(paulit-ulit lng din yan)
A|-----2-2-2-2|
E|0-2-2-2---2-|

Bagsakan:
G|---------------------|
D|-----------2-4-2-----|
A|----------------5-4-2|
E|0-0-0-0-0-0----------|

d pa aq xur dyan!plz. rate dis!bago p lng aq mgttabs..
            
Hard to play? Try these video lessons and learn fast. | Correct




comments powered by Disqus
↑ Back to top | Tablatures and chords are parodies/interpretations of the original songs. You may use it for private study, scholarship, research or language learning purposes only