» » »

Tadhana Tabs (ver.1)

Artists:  A B C D E F G H I J K L M N O P Q R S T U V W X Y Z # 

Tadhana Tabs (ver.1)

Up Dharma Down
Rating:
0/5 (0 votes)

Tabs too difficult? Try these video lessons and learn fast.
                *standard tuning*

Verse:

   Ebm7   C#7    B#m     >G#m7 last chord transition to chorus<
E|---6-----4------2----------------4--------|                
A|---6-----4------2----------------6--------|
D|---8-----6------4----------------4--------|
G|---6-----4------3----------------4--------|
B|---7-----6------2----------------4--------|
e|---6-----4------2----------------4--------|


Chorus:

       B#m    C#7    Bbm7      >G#m7 last chord transition into verse<
E|------2------4------6----------------4---|                
A|------2------6------x----------------6---|
D|------4------4------6----------------4---|
G|------3------4------6----------------4---|
B|------2------4------4----------------4---|
e|------2------4------x----------------4---|

Instrumental:

   Ebm7   C#7   Bbm7    B#m     
E|---6-----4-----1-------2-----|                
A|---6-----4-----1-------2-----|
D|---8-----6-----3-------4-----|
G|---6-----4-----1-------3-----|
B|---7-----6-----2-------2-----|
e|---6-----4-----1-------2-----|   

(repeat instrumental for 4 measures, go into chorus, end)
*skip B#m on last instrumental loop*
            
Tabs too difficult? Try these video lessons and learn fast.




comments powered by Disqus
↑ Back to top | Tablatures and chords are parodies/interpretations of the original songs. You may use it for private study, scholarship, research or language learning purposes only