» » »

Unknown - Untitled Tabs (ver.1)

Artists:  A B C D E F G H I J K L M N O P Q R S T U V W X Y Z # 

Unknown - Untitled Tabs (ver.1)

Unsigned
Rating:
0/5 (0 votes)

Hard to play? Try these video lessons and learn fast.
                intro/chorus

e|--------------------------------------------------------------------|
B|--------------------------------------------------------------------|
G|-4-4-4-4-4-4-4-4-----------------4-4-4-4-4-4-4-4--------------------|
D|-4-4-4-4-4-4-4-4-4-4-4-4-4-4-4-4-4-4-4-4-4-4-4-4-4-4-4-4-4-4-4-4----|
A|-2-2-2-2-2-2-2-2-4-4-4-4-4-4-4-4-2-2-2-2-2-2-2-2-4-4-4-4-4-4-4-4----|
E|-----------------2-2-2-2-2-2-2-2-----------------2-2-2-2-2-2-2-2----|

e|--------------------------------------------------------------------|
B|--------------------------------------------------------------------|
G|-4-4-4-4-4-4-4-4-----------------4-4-4-4-4-4-4-4--------------------|
D|-4-4-4-4-4-4-4-4-4-4-4-4-4-4-4-4-4-4-4-4-4-4-4-4-4-4-4-4-4-4-4-4----|
A|-2-2-2-2-2-2-2-2-4-4-4-4-4-4-4-4-2-2-2-2-2-2-2-2-4-4-4-4-4-4-4-4----|
E|-----------------2-2-2-2-2-2-2-2-----------------2-2-2-2-2-2-2-2----|

                                play twice
e|--------------------------------------------------------------------|
B|--------------------------------------------------------------------|
G|-444-444-444-444-444-444-444-444-444-444-444-444-444-444-444-444----|
D|-222-222-222-222-222-222-222-222-222-222-222-222-222-222-222-222----|
A|--------------------------------------------------------------------|
E|--------------------------------------------------------------------|

                         play 3 times 
e|--------------------------------------------------------------------|
B|--------------------------------------------------------------------|
G|--4---4---4---4-----------------------------------------------------|
D|------------------4---4---4---4---6---6---6---6---4---4---4---4-----|
A|--------------------------------------------------------------------|
E|--------------------------------------------------------------------|

                        ending
e|---------|----------------------------------------------------------|
B|---------|----------------------------------------------------------|
G|--pick---|----4-4-4-xxxx--------------------------------------------|
D|-slide---|----4-4-4-xxxx-4-4-xx-6-6-6-xxxx-4-4-xx-------------------|
A|-\-\-\---|----2-2-2-xxxx-4-4-xx-6-6-6-xxxx-4-4-xx-------------------|
E|---------|---------------2-2-xx-4-4-4-xxxx-2-2-xx-------------------|
            
Hard to play? Try these video lessons and learn fast. | Correct




comments powered by Disqus
↑ Back to top | Tablatures and chords are parodies/interpretations of the original songs. You may use it for private study, scholarship, research or language learning purposes only