>
 >
Walking Bass For Swing

Walking Bass For Swing Bass Tabs

Unsigned - Walking Bass For Swing chords, tabs, tablatures, lyrics

Guitar lessons | Add/correct | Request | Top 50 tabs Artists:  A B C D E F G H I J K L M N O P Q R S T U V W X Y Z 0-9

Walking Bass For Swing Bass Tabs – Unsigned

CD, Sheet music, Poster

Do you like Walking Bass For Swing? Share with your friends now
Bass Tabs
G ----------------------------------|
D ----------------------------------| 
A ----2-4-5-4-2---------2-4-5-4-2---|
E 0-4------------4--0-4-----------4-|

G -----------------------------------|
D ----2-4-5-4-2----------------------| 
A 0-4-----------4--------2-4-5-4-2---|
E -------------------0-4-----------4-|

G ------1-2-----------------------|
D -1-4-----4-1-------2-4-5-4-2---|
A 2---------------0-4-----------4-|
E --------------------------------|

The chord progression goes E-E-A-E-B-A, each receiving one measure. This can also be played with any other frets (meaning that you can add 3 frets to every note and have the chords go G-G-C-G-D-C-G)





Comments


Popular Unsigned tabs & chords
Dabchick - The Elcamino Hapachino Bass Tabs
Insecure Gnomes - Clearer Bass Tabs
R33b0rn - Road Of Life Bass Tabs
Another Boring Memoir- Dinner Skip...... Tabs
Apu - Anymore Tabs
Fernands Band - Punkers Tabs
Flash Point Mayhem - Universal Peace/War Tabs
Homenaje A Los Bj´S Tabs
Ill By Mouth- Judgement Tabs
Korosive Element- Straw Mane Tabs


Song lyrics



↑ Back to top | Tablatures and chords are parodies/interpretations of the original songs. You may use it for private study, scholarship, research or language learning purposes only
© 2014 AZChords.com Contact us | Privacy policy | DMCA | Add/correct tabs | Request tabs | Top 50 tabs