» » »

Walking Bass For Swing Bass tabs (ver.1)

Artists:  A B C D E F G H I J K L M N O P Q R S T U V W X Y Z # 

Walking Bass For Swing Bass tabs (ver.1)

Unsigned
Rating:
0/5 (0 votes)

Hard to play? Try these video lessons and learn fast.
                G ----------------------------------|
D ----------------------------------| 
A ----2-4-5-4-2---------2-4-5-4-2---|
E 0-4------------4--0-4-----------4-|

G -----------------------------------|
D ----2-4-5-4-2----------------------| 
A 0-4-----------4--------2-4-5-4-2---|
E -------------------0-4-----------4-|

G ------1-2-----------------------|
D –-1-4-----4-1-------2-4-5-4-2---|
A 2---------------0-4-----------4-|
E --------------------------------|

The chord progression goes E-E-A-E-B-A, each receiving one measure. This can also be played with any other frets (meaning that you can add 3 frets to every note and have the chords go G-G-C-G-D-C-G)
            
Hard to play? Try these video lessons and learn fast. | Correct




comments powered by Disqus
↑ Back to top | Tablatures and chords are parodies/interpretations of the original songs. You may use it for private study, scholarship, research or language learning purposes only