» » »

Unknown - Untitled Tabs (ver.2)

Artists:  A B C D E F G H I J K L M N O P Q R S T U V W X Y Z # 

Unknown - Untitled Tabs (ver.2)

Unsigned
Rating:
0/5 (0 votes)

Hard to play? Try these video lessons and learn fast.
                Verse/Intro
e|---------------------------------------------------------------------------------------------
B|------------14-----------------------13----------------------12---------------------11-------
G|------15---------15------------14 ---------13----------11----------11----------10--------10--
D|---13----13---13----13------12----12----12----12----10----10----10----10-----9----9----9----9
A|---------------------------------------------------------------------------------------------
E|0~----------------------0~-----------------------0~-----------------------0~-----------------


Chorus
e|---------------------------------------------------------------------------------------------
B|---------------------------------------------------------------------------------------------
G|15-15-15-15-1414141414-12-12-12-12-1111111111------------------------------------------------
D|---------------------------------------------------------------------------------------------
A|13-13-13-13-1212121212-10-10-10-10- 9 9 9 9 9------------------------------------------------
E|---------------------------------------------------------------------------------------------


Solo(or what is supposed to be a solo)
e|9-11-12-11----------------12-12/14-16^-14-----------7-9/12-9-11-12-11-------------12-9-------
B|-----------12-9-9-9/12-12-----------------16-14-7-9-------------------12-9-9-9/12------9-7-9~
G|---------------------------------------------------------------------------------------------
D|---------------------------------------------------------------------------------------------
A|---------------------------------------------------------------------------------------------
E|---------------------------------------------------------------------------------------------


Key:
/ = Slide
^ = Bend
~ = let ring 

Song Layout:
Verse/Intro - 4x
Chorus - 2x
Verse/Intro - 3x
Chorus - 2x
Solo - 1x
Chorus - 2x
            
Hard to play? Try these video lessons and learn fast. | Correct




comments powered by Disqus
↑ Back to top | Tablatures and chords are parodies/interpretations of the original songs. You may use it for private study, scholarship, research or language learning purposes only