>
 >
Man Bai-Kau Ilhamku

Man Bai-Kau Ilhamku Guitar Tabs

Unsigned - Man Bai-Kau Ilhamku chords, tabs, tablatures, lyrics

Guitar lessons | Add/correct | Request | Top 50 tabs Artists:  A B C D E F G H I J K L M N O P Q R S T U V W X Y Z 0-9

Man Bai-Kau Ilhamku Guitar Tabs – Unsigned

CD, Sheet music, Poster

Do you like Man Bai-Kau Ilhamku? Share with your friends now
Tabs
Tuning:Standard EBGDAe
Recommended instrument: Classical / Acoustic guitar
2:34 AM 11/11/2003

<Legend>
h        = hammer on
p        = pull off
(f)      =play xtra fast
      
	
Intro:


[Dm7]                                                                   [G]  
E--------------------1------------0--------------------l--------------------------------------------------------------------------------l
B--------------------1------------0--------------------l---------------------1h3----0------------------1-----------3------------0h1-l
G-------------2------------2-----------2--------------l--------------------------------------------------------------------------------l
D-------0-------------------------------------0--------l------------0------------------------------------------------------------------l
A-------------------------------------------------------l--------------------------------------------------------------------------------l
E-------------------------------------------------------l-----3---------------------------------3---------------------------------------l



[Am]                                                    [Bflat]         [Bflat]
E-----------------------------------------0------1----l--------------------------------1-------------------------------------------------l
B-----------------------1---------1--------------3----l----------------------3----------------------------------1-3---------------------l
G-----2----------2----------2------------------3-----l-------------3-------------------------------------------------------------------l
D-----------2------------------------------------------l---------------------------------------------------------------------------------l
A-----0----------------------0------------------1-----l------1---------------------------------1----------------------------------------l
E-------------------------------------------------------l---------------------------------------------------------------------------------l
                                                                                                                                              Be-ri

Verse:

(#)

[C]                                      [G/B]                                 [A]m                      [Em7]                                                                                                                         
E---0----0----0----0-----------------------------------l	E---------------------------------------------------------------l   
B---1-----1----1----1------------3----------3------3---l	B--1-----3-----5-------3--------------0----------------------l
G---------------------------------0----------------------l	G--2-----4-----5-------4--------------0---------------------l
D---------------------------------------------------------l	D--------------------------------------------------------------l
A---3----------------------------2-----------------------l	A--0-----------------------------------------------------------l
E----------------------------------------------------------l	E--------------------------------0-----------------------------l
       bu  bin-tang di                           lang  -  it                 ki - ni     meng - hi               lang____
      lan  meng-am-bang                       ki  -  ni                   ma-kin     su  -  ram_____
       tik   wa-jah-mu                         mun -  cul                  da-lam     di - am_____    
       kah  bin-tang  a           -               tau    -                   pun-rem - rem - bu - lan_____                                                                                                        


[F]                                                                                            [G]
E-----------------------------1---------------0---------------------------------------------------------------------------------------------------l
B-----------0--------1-------1--------------------------3-------3---------------------------------------------------------------------1-------3-l
G---2-------2-------2-------------------------------------------------------------0--------0------------------------------0--------------------l   (repeat#)
D---3-------------------------------------------------------------------------------0--------0-------------------0------------------------------l
A--------------------------------------------------------------------------------------------------------------------------------------------------l
E----------------------------------------------------------------------------3----------------------------3---------------------------------------l
     me  -  ra   -   ba         a          -       ku          da  -  lam                      ge  -  lap__                                              rem - bu
                                                                                                                      

[F]                                [G]                                                           [C]                            [G]
E-----------------------------1---------------0-----------------------------------------------------------------------------------------------------l
B-----------0--------1-------1--------------------------3-------3------------3---------------------------------------------------------1-------3-l
G---2-------2-------2--------------------------------------------------------------------1-------1------------------------------0-----------------l    (repeat #)
D---3-------------------------------------------------------------------------------------0-------0--------------------0--------------------------l
A--------------------------------------------------------2--------------------3---------------------------------------------------------------------l
E---1---------------------------------3-------------------------------------------------------------------3-----------------------------------------l
     pu  -  dar         il  -  ham       -         ku          tan  -  pa                             a   -   rah___                                       se  -  de                                                                                                                                                                                       

     [F]                                                                                       [G]
E-----------------------------1--------1-------0---------------------------------------------------------------------------------------------------l
B-----------0--------1-------1--------1-----------------3-------3---------------------------------------------------------------------1-------3-l
G---2-------2-------2-------------------------------------------------------------0--------0------------------------------0--------------------l     (repeat #)
D---3-------------------------------------------------------------------------------0--------0-------------------0------------------------------l
A--------------------------------------------------------------------------------------------------------------------------------------------------l
E----------------------------------------------------------------------------3----------------------------3---------------------------------------l
 A   -  da       ker  -  di           -        pan         a  -    da                       si  -  nar___                                                 I  -  tu   


     [F]                                      [G]                                               [C]
E-----------------------------1---------------0------------------------------------------------------------------------------------------------------l
B-----------0--------1-------1--------------------------3-------3-----------------------1--------1-----------------------------------------1-------l
G---2-------2-------2-------------------------------------------------------------------0--------0------------------------------0-----------------l    
D---3------------------------------------------------------------------------------------2--------2-------------------2----------------------------l
A--------------------------------------------------------2---------------------3-----------------------------3--------------------------------------l
E---1---------------------------------3--------------------------------------------------------------------------------------------------------------l
     teri -  ma       ka  -  sih                    ku          u   -  cap                           kan____                                 




Chorus

    [C]                       [G/B]                      [Am]                 [Em7]                        [F]                 [Dm7]                                                                                                                                                                                          
E-------------------0---------------------0--------------------0---------------------------------------------------------------1--------------l
B--------------1-----------------3---1--------------3----1----1--------------3----1----0-----1p0----------------------1-----1------1------l
G--------0------------------------------------------4----2-------------------4----2----0-------------2----------------2-----------2-------l
D-----------------------------------------------------------------------------------------------3------------2-----0-------------------------l
A---3---------------------2---------------------0--------------------------------------------------------------------------------------------l
E---------------------------------------------------------------------0------------------------------------------------------------------------l
              I-zin-kan             ku  men-cu         ri     ba-yang       -     an   wa-jah -  mu_____


       [G]                                                [C]                       [G/B]                  [Am]                       [Em7]
E------------------------------------------------------------------0----------------0------------------------0---------------------------------l
B-----------0-----------------1p0--------0----1----------1------1--------3---1-----------------3-----1-----1---------3-----1-----0--------l
G-----------0------------------------2--------------0----0--------------------------------------4-----2---------------4-----2-----0--------l
D-------0------0-------0----------------------------2-----------------------------------------------------------------------------------------l
A-----------------------------------------------3----------------------2-------------------0---------------------------------------------------l
E----3--------------3-----------------------------------------------------------------------------------------------0--------------------------l
                                                                    I - zin - kan        ku-men cu       -     ri  -  kha - ya     -     lan  deng-an-

     [F]                     [Dm7]                         [G] 
E-----------------------------------------1------------------------------------------0-----1-------l
B---1p0------------------------------1--------------------------------3-----3------1-----3-------l
G-----------2-------------------2-----------------------------0------4------4--------------------l
D---3-------------2-----0------------------------------0------------------------------------------l
A---------------------------------------------------------------------------------------------------l
E---------------------------------------------------3-----------------------------------------------l
      mu____                                                                       ma - af   -  kan - lah                                          

      [C]                           [G/B]                  [Am]                               [Em7]                          [F]
E----3-------------------------------------------------------------------------------------------0-----1------------1---1---1-----------------l
B----1------------------1------0--------------------------------------------1-------------3-------------------------1---1---1-----------------l
G----------------0-------------0-----------0------------------------2----------------------------------------------2---2---2----------------l
D----------2-------------------------0------------------------2---------------------------------------------3--------------------2-----------l
A----3-------------------------2------------------------0-------------------------------------------------------------------------------------l
E---------------------------------------------------3-------------------------------0----------------------------------------------------------l
      oh___                                                                                                   An - dai    la            gu - i - ni ____                                                                                                                                                                                                                                   


E--0----------1------------1---1---1-----------0---------------------------------------------------------------------------0----1-------------l
B--------3-----------------1---1---1----------------3---3--------------------0-----------------0----------------3---3----1---3-------------l
G---------------------------2---2---2------------------------------------0-----------------0----------------0---4---4-----------------------l
D---------------------0--------------------3-------------------------0-----------------0----------------0-------------------------------------l
A-----------------------------------------------------------------------------------2-----------------------------------------------------------l
E-------------------------------------------------------------3---------------------------------------3-----------------------------------------l
   men-gang-gu             ru-ang-an           hi-dup-mu___                                                                kau sen-yum-lah                                                                                                                                                                                

       C                             G/B                           Am                             Em7                            F
E----3-------------------------------------------------------------------------------------------0-----1------------1---1---1-----------------l
B----1------------------1------0--------------------------------------------1-------------3-------------------------1---1---1-----------------l
G----------------0-------------0-----------0------------------------2----------------------------------------------2---2---2----------------l
D----------2-------------------------0------------------------2---------------------------------------------3--------------------2-----------l
A----3-------------------------2------------------------0-------------------------------------------------------------------------------------l
E---------------------------------------------------3-------------------------------0----------------------------------------------------------l
      oh___                                                                                                   se - ka - dar              me-mo-ri                                                                                                                                                                                 

                          [Dm7]                                          [G]                                                                                                                                                      
E--0----------1------------1---1---1-----------0---------------------------------------------------------l
B--------3-----------------1---1---1----------------3---3------------------------0-----------------0----l
G---------------------------2---2---2----------------------------------------0-----------------0--------l
D---------------------0--------------------3-----------------------------0-----------------0-------------l
A---------------------------------------------------------------------------------------2------------------l
E------------------------------------------------------------------3---------------------------------------l
    ki - ta   di               a-re-na                       i - ni___                                                                                                                                                                                         


     [G]                [G/B]                                                   [Am]                        [Em7]                    [F]
E----------------0----0-----------------------------------0----3------------------------0---0------------------------------------------------0---1--l
B--------------------------3---1---------1--------1---3------------------------------1-------------3---------1--------1--------------1----3---------l
G----------------------------------------0---------------------------------------2------------------------------------------2-------------------------l
D-----------0---------2-----------------2----------------------------------------------------------------2--------3------------3-----3--------------l
A------0---------------------------3----------------------2---------2----0---------------------------------------------------------------------------l
E--3-------------------------------------------------------------------------------------------0-------------------------------------------------------l
                    Kau   il - ham            ku                                                         Kau  il       -          ham      ku___                                                                                                                                                                                                                                        



   [G]
E--0-----------------------------------------l
B--------------1----0------------------------l
G----------0-------------0------------------l
D------0-------------------------0----------l
A-----------------------------2--------------l
E--3---------------3-------------------------l


Solo Break:

   [C]                [G/B]             [Am]           [Em7]                  [F]                      Dm7                                                                                                                                                           
E--0------------1-------3------1---------0-----------------------0---------------1-----------------------------------------0--------l
B------------------------------------------1----3-----  (f)013--------------1---------------------------------(f)013---------------l
G----------0------------------------------2----------------------------2---------------------------(f)02----------------------------l
D------2----------------------------------------------------------------3-------------2-----0----------------------------------------l
A--3---------------2----------------0-------------------------------------------------------------------------------------------------l
E----------------------------------------------------0---------------------------------------------------------------------------------l


   [F]                     [Dm7]                                   [G]                                                                                                                                                                     
E-----------1---------------------------------------0-----1--------------0-----------------------0-------------------------------------l
B-------1-------------------------------(f)013---------------------0----------3----1-----3-------------------------------------------l
G--2---------------------------0p2----------------------------0-----------------------------------------------------------------------l
D--3--------------2-----0--------------------------------------------------------------------------------------------------------------l
A-------------------------------------------------------------------------------2--------------------------------------------------------l
E----------------------------------------------------------3-----------------------------------------------------------------------------l


    [C]                          [G/B]                   [Am]            [Em7]                                                                                                                                                                               
E---0------------------------0-----1------3------0----1---------0---------------------------------------------------------------------l
B------------------1----3------------------------------------3-------------(f)1---3---0---1--------0----------------------------------l
G-------------0----------------------------------------------------------------------------------2--------0-----------------------------l
D--------2-------------------------------------------------------------------------------------------------------------------------------l
A---3------------------------2--------------------0-------------------------------------------------------------------------------------l
E------------------------------------------------------------------0---------------------------------------------------------------------l

     [F]                                                [G]                                                                                                                                                                                          
E-------------------------------0---------------------------------------------------------------------------------3---------------------------------l
B-----------1----0----1----3------3----1----3-------0----------------1-------------3------------1------------------0-----1-----3---------------l
G-------2------------------------------------------0-----0---0---0--------0---0--------0---0--------0---0-------------------------------------l
D---3-----------------------------------------------------------------------------------------------------------------------------------------------l
A---------------------------------------------3------------------------------------------------------------------------------0-----2---------------l
E----------------------------------------------------------------------------------------------------3-----------------3----------------------------l


Chorus:

    [C]                      [G/B]              [Am]                [Em/G]                  [F]                  [Dm7]                                                                                                                                                                             
E-------------------0-------------------0----------------0--------------------------------------------------------------1-------------------------l
B---1---------1-----1----------3----1----------3---1----1----------3---1---0----1p0-----------------------------1------------------------------l
G--------0-------------------------------------4---2---------------4---2---0-------------2-----------------2-----------------------------------l
D--------2-------------------------------------------------------------------------3-------------2-----0-----------------------------------------l
A---3--------------------2----------------0-------------------------------------------------------------------------------------------------------l
E---------------------------------------------------------------0----------------------------------------------------------------------------------l
           I - zin - kan ku   men - cu     -     ri ba - yang        an wa - jah   mu____                                                                                                                                                                                       


    [G]                              
E-----------------------------------------l
B------------0----------1----------0-----l
G------------0----0----------2----------l
D-------0--------------------------------l
A-----------------------------------------l
E---3-------------------------------------l
                                                                                                                                                                              
    [C]                      [G/B]                       [Am7]                 [Em/G]            
E--------------------0----------------------0---------------------0------------------------------------------l
B---------------1----1----------3----1------------------3----1----1---------3----1----0---------------------l
G---------0----0----------------------------------------4----2--------------4----2----0--------------------l
D---------2----------------------------------------------------------------------------------------------------l
A----3---------------------2-----------------------0----------------------------------------------------------l
E-------------------------------------------------------------------------0------------------------------------l
              I - zin - kan         ku men - cu      -     ri    kha - ya          lan deng - an 

      [F]                                                         [G]                                                            [C]
E----------------------------------------------1---------------------------------------------------l-------------l
B----1p0--------------------------------1-----------------------0----------1----------0--------l------1------l
G-------------2-------------------2-----------------------------0-----0----------2--------------l-----0------l
D----3----------------------3------------------------------0-------------------------------------l------2-----l
A---------------------3---------------------------------------------------------------------------l------3-----l
E------------------------------------------------------3-------------------------------------------l------------l
       mu___                                                                        Kau  il - ham - ku____


--------------------End------------------------





Comments


Popular Unsigned tabs & chords
2thumbsdown 2 Bass Tabs
Bass Riffs By Kyle Woods Bass Tabs
Blue Tuesday - The First Song Bass Tabs
Homespun - Outside Your Window Bass Tabs
The C-4 Bass Tabs
A Product Of Teen Boredom - Shes Crazy Tabs
Choking Hazard - "Joel" Tabs
Deathmealish Song I Made Tabs
G.P.C-Run Away Tabs
Gravel Road - Imaginary Seagul Shadow Tabs


Song lyrics



↑ Back to top | Tablatures and chords are parodies/interpretations of the original songs. You may use it for private study, scholarship, research or language learning purposes only
© 2014 AZChords.com Contact us | Privacy policy | DMCA | Add/correct tabs | Request tabs | Top 50 tabs